Song name
# A B C D E F G H I J K L M N O P Q R S T U V W X Y Z

Misc Unsigned Bands - The Street Brats - The Kids Just Wanna Dance tab

e------------------------------------------------------------|
b------------------------------------------------------------|
g-14-14-14-14-14---------------------------------------------|
d-14-14-14-14-14-14-14-14-14-14-16-16-16-16-16-12-12-12-12-12|
a-12-12-12-12-12-14-14-14-14-14-16-16-16-16-16-12-12-12-12-12|
E----------------12-12-12-12-12-14-14-14-14-14-10-10-10-10-10|
     x  x  x  x     x  x  x  x     x  x  x  x     x  x  x  x

                            ^^^^^^^^^^^^^^^^^^^^^^^^^^^^^^^^^^^^^^^^^^^^^^^^^^^^^^^^^^^^^^
twice but on the sencond time you an figure out the palm mute on your own its easy

e----------------------------------------|
b----------------------------------------|
g-----14------14-------------------------|
d---14--14--14--14----16------12---------|
a-12----------------16--16--12--12-------|
E---------12------14------10-------------|

e------------------------------------|
b------------------------------------|
g-------------------------7-7-7-7----|
d-7-7-2-2-2-2-4-4-4-4-7-7-7-7-7-7----|
a-7-7-7-7-2-2-2-2-4-4-4-4-5-5-5-5----|
E-5-5-5-5-0-0-0-0-2-2-2-2------------|

chorus same as intro but no palm mutes
Tap to rate this tab
# A B C D E F G H I J K L M N O P Q R S T U V W X Y Z