Guitaretab - guitar tabs
Song name
# A B C D E F G H I J K L M N O P Q R S T U V W X Y Z

Misc Unsigned Bands - One Confession - Confessions Of A Hopeless Romantic tab

Confessions of a Hopeless Romantic Tab by One Confession

Standard Tuning


Intro and Verse
   D			G		    B		      A
e----------2----------------2---------------0----------------0-------|
B------3-----3---3------2-----2---2------3----3---3------2-----2---2-|
G----2---2-----2------0---0-----0------4---4----4------2---2-----2---|
D--0-----------------------------------------------------------------|
A------------------------------------2---------------0---------------|
E-------------------3------------------------------------------------|


Chorus
   D          G	     B          A
e--2-2-3-3-2--2-2-5-5-2--0-0-0-0-0--0-0-3-3-0-|
B--3-3-3-3-3--2-2-2-2-2--3-3-5-5-3--2-2-2-2-2-|
G--2-2-2-2-2--0-0-0-0-0--4-4-x-x-4--2-2-2-2-2-|
D--0-0-0-0-0--0-0-0-0-0--4-4-4-4-4--2-2-2-2-2-|
A-------------2-2-2-2-2--2-2-2-2-2--0-0-0-0-0-|
E-------------3-3-3-3-3-----------------------|

Lyrics
[ Tab from: http://www.guitaretab.com/m/misc-unsigned-bands/101237.html ]
I would give anything,
just to hold you one more time,
And maybe even kiss you,
for the very first time.

You keep on denying it,
but it's easy to see,
that the last guy you loved,
you think he's better than me.

I want to feel the warmth of you next to me,
to know that you cared about me,
as you stare those beautiful blue eyes through me,
to know if you ever loved me.

You just can't get over that guy,
'cause he made you feel like you could touch the sky,
but I know that if you give me just one chance,
then I would make you fly so high.

I want to feel the warmth of you next to me,
to know that you cared about me,
as you stare those beautiful blue eyes through me,
to know if you ever loved me.

I know you know I love you,
But you still wonít let him go.
I know itís complicated,
But be with me and I know
That as soon as you two began,
It will all be over.

We can love like no one else ever loved.
We can be the perfect two, just wait and see,
We could have made it to heaven,
if you just would have loved me...(repeat while fading out)
Related for One Confession - Confessions Of A Hopeless Romantic tab