Song name
# A B C D E F G H I J K L M N O P Q R S T U V W X Y Z

Misc Unsigned Bands - Sololee - Mystery tab

e ---------------------------------------------------------| R
B ---------------------------------------------------------| E
G ---------------------------------------------------------| P
D -------------------9-------------------------------------| E
A -9-9---5-4---7-7-----9-----------------------------------| A
E ---------------------------------------------------------| T


e ------------------12-12--14--------------------------------| R
B ----------14-15--------------12----------------------------| E
G --11-11----------------------------------------------------| P
D -----------------------------------------------------------| E
A -----------------------------------------------------------| A
E -----------------------------------------------------------| T


e -------------------------------------------------------------| R
B -------------------------------------------------------------| E
G -------------------------------------------------------------| P
D ----9--------------------------------------------------------| E
A --9----7-7---5-4---9-9---------------------------------------| A
E -------------------------------------------------------------| T

e -----14---12-12----------------------------------------------| R
B --12-------------15-14---------------------------------------| E
G -------------------------11-11-------------------------------| P
D -------------------------------------------------------------| E
A -------------------------------------------------------------| A
E -------------------------------------------------------------| T

THATS ALL IVE GOT RIGHT NOW I HOPE U LIKE. SORRY I CANT LET U EAR THE REAL THING BUT 
PLAY AROUND WITH IT AND U WILL FIND A GOOD RHYTHYM FOR IT.
Tap to rate this tab
# A B C D E F G H I J K L M N O P Q R S T U V W X Y Z