Song name
# A B C D E F G H I J K L M N O P Q R S T U V W X Y Z

Misc Unsigned Bands - Painted South - What tab

Intro:

e|----------------------------------------------------------------------------|
B|----------------------------------------------------------------------------|
G|----------------------------------------------------------------------------|
D|------2---3---0---2---3---2---0---------------------------------------------|
A|--3-------------------------------0---2---3---------------------------------|
E|----------------------------------------------------------------------------|

Verse 1:

e|-3/12--3/12--3/11--3/10--3/9--3/8--3/7--3/6--3/5--3/4--3--3/2--3/1--3-------|
B|----------------------------------------------------------------------------|
G|----------------------------------------------------------------------------|
D|----------------------------------------------------------------------------|
A|----------------------------------------------------------------------------|
E|----------------------------------------------------------------------------|

e|--------------------------------------------------3030303030303030----------|
B|----0--3--0-----------------------------0--3--0---------------------0--3----|
G|-------------2--0-----------------0--2--------------------------------------|
D|-------------------2--0--0--0--2--------------------------------------------|
A|----------------------------------------------------------------------------|
E|----------------------------------------------------------------------------|

e|----30----------------------------------------------------------------------|
B|-0--------------------------------------------------------------------------|
G|----------------------------------------------------------------------------|
D|----------------------------------------------------------------------------|
A|---------2--2--2--2--2--2--2--2--2--2--2--2--2--2--2--2--2--2--2--2--2--2---|
E|---------0--0--0--0--0--0--0--0--0--0--0--0--0--0--0--0--0--0--0--0--0--0---|

e|----------------------------------------------------------------------------|
B|----------------------------------------------------------------------------|
G|----------------------------------------------------------------------------|
D|----------------------------------------------------------------------------|
A|--2--2--2--2--2--2--2--2--2--2--2--2--2--2--2--2--2--2--2--2--2--2--2--2----|
E|--0--0--0--0--0--0--0--0--0--0--0--0--0--0--0--0--0--0--0--0--0--0--0--0----|

e|----------------------------------------------------------------------------|
B|----------------------------------------------------------------------------|
G|----------------------------------------------------------------------------|
D|----------0-----0--3--0-----0--3--3--3--2--------0-------0-------0---0--0---|
A|-------------0-----------0------------------0--3----0--3----0--3-----3--3---|
E|----------------------------------------------------------------------------|

e|----------------------------------------------------------------------------|
B|----------------------------------------------------------------------------|
G|------------------------------------3--3--3--4--4---4--6--6--8--------------|
D|-------0-------0-------0--0--0----------------------------------------------|
A|--0--3----0--3----0--3----3--3----------------------------------------------|
E|----------------------------------------------------------------------------|

e|------------------------------2--2--2--2--2--2--2--2-----2--2--2--2--2--2---|
B|------------------------------3--3--3--3--3--3--3--3-----3--3--3--3--3--3---|
G|---------------7--------------4--4--4--4--4--4--4--4-----4--4--4--4--4--4---|
D|----------7-7----7------------5--5--5--5--5--5--5--5-----5--5--5--5--5--5---|
A|--7-7--9------------7-------------------------------------------------------|
E|----------------------------------------------------------------------------|

e|-2--2--------------------------------------------------------------------------|
B|-3--3--------------------------------------------------------------------------|
G|-4--4--------------------------------------------------------------------------|
D|-5--5--------------------------------------------------------------------------|
A|-------------------------------------------------------------------------------|
E|-------------------------------------------------------------------------------|

Chorus:

e|--00000000000000000000000000000000000000000000000000000000000000000000000---|
B|----------------------------------------------------------------------------|
G|----------------------------------------------------------------------------|
D|----------------------------------------------------------------------------|
A|----------------------------------------------------------------------------|
E|----------------------------------------------------------------------------|

e
e|-0--------------------------------------------------7---7----7--------------|
B|----4--4--4--4--4b-4b-4b--4-0-----------------------8---8----8--------------|
G|--------------------------------3--8--3--8--3--8----9---9----9--------------|
D|---------------------------------------------------10--10----9--------------|
A|----------------------------------------------------------------------------|
E|----------------------------------------------------------------------------|


Verse 2: (taping)

e|--9--12--9--12----------12--9-----------------------------------------------|
B|----------------12--9~---------0--0--3--0--------0--------------------------|
G|-------------------------------------------2--2-----------------------------|
D|----------------------------------------------------------------------------|
A|----------------------------------------------------------------------------|
E|----------------------------------------------------------------------------|

(End Taping)

e|--2--2--2--2--2--2--2--2-----2--2--2--2--2--2--2--2-------------------------|
B|--3--3--3--3--3--3--3--3-----3--3--3--3--3--3--3--3-------------------------|
G|--4--4--4--4--4--4--4--4-----4--4--4--4--4--4--4--4-------------------------|
D|--5--5--5--5--5--5--5--5-----5--5--5--5--5--5--5--5-------------------------|
A|----------------------------------------------------------------------------|
E|----------------------------------------------------------------------------|


Chorus:

e|--00000000000000000000000000000000000000000000000000000000000000000000000---|
B|----------------------------------------------------------------------------|
G|----------------------------------------------------------------------------|
D|----------------------------------------------------------------------------|
A|----------------------------------------------------------------------------|
E|----------------------------------------------------------------------------|


e|-0--------------------------------------------------7---7----7--------------|
B|----4--4--4--4--4b-4b-4b--4-0-----------------------8---8----8--------------|
G|--------------------------------3--8--3--8--3--8----9---9----9--------------|
D|---------------------------------------------------10--10----9--------------|
A|----------------------------------------------------------------------------|
E|----------------------------------------------------------------------------|


Verse 3:                                                    (DRUM SOLO)

e|--2--2--2--2--2--2--2--2-----2--2--2--2--2--2--2--2-------------------------|
B|--3--3--3--3--3--3--3--3-----3--3--3--3--3--3--3--3-------------------------|
G|--4--4--4--4--4--4--4--4-----4--4--4--4--4--4--4--4-------------------------|
D|--5--5--5--5--5--5--5--5-----5--5--5--5--5--5--5--5-------------------------|
A|----------------------------------------------------------------------------|
E|----------------------------------------------------------------------------|

                                                             (DRUM SOLO)

e|--2--2--2--2--2--2--2--2-----2--2--2--2--2--2--2--2-------------------------|
B|--3--3--3--3--3--3--3--3-----3--3--3--3--3--3--3--3-------------------------|
G|--4--4--4--4--4--4--4--4-----4--4--4--4--4--4--4--4-------------------------|
D|--5--5--5--5--5--5--5--5-----5--5--5--5--5--5--5--5-------------------------|
A|----------------------------------------------------------------------------|
E|----------------------------------------------------------------------------|


(DRUM SOLO)


Chorus:

e|--00000000000000000000000000000000000000000000000000000000000000000000000---|
B|----------------------------------------------------------------------------|
G|----------------------------------------------------------------------------|
D|----------------------------------------------------------------------------|
A|----------------------------------------------------------------------------|
E|----------------------------------------------------------------------------|


e|-0--------------------------------------------------7---7----7--------------|
B|----4--4--4--4--4b-4b-4b--4-0-----------------------8---8----8--------------|
G|--------------------------------3--8--3--8--3--8----9---9----9--------------|
D|---------------------------------------------------10--10----9--------------|
A|----------------------------------------------------------------------------|
E|----------------------------------------------------------------------------|


Verse 4:

e|--2--2--2--2--2--2--2--2--2--2--2--2--2--2--2--2--2--2--2--2--2--2--2--2----|
B|--3--3--3--3--3--3--3--3--3--3--3--3--3--3--3--3--3--3--3--3--3--3--3--3----|
G|--4--4--4--4--4--4--4--4--4--4--4--4--4--4--4--4--4--4--4--4--4--4--4--4----|
D|--5--5--5--5--5--5--5--5--5--5--5--5--5--5--5--5--5--5--5--5--5--5--5--5----|
A|----------------------------------------------------------------------------|
E|----------------------------------------------------------------------------|

e|--2--2--2--2--2---------------------------------------------------------------|
B|--3--3--3--3--3---------------------------------------------------------------|
G|--4--4--4--4--4---------------------------------------------------------------|
D|--5--5--5--5--5---------------------------------------------------------------|
A|------------------------------------------------------------------------------|
E|------------------------------------------------------------------------------|


Chorus :

e|--00000000000000000000000000000000000000000000000000000000000000000000000---|
B|----------------------------------------------------------------------------|
G|----------------------------------------------------------------------------|
D|----------------------------------------------------------------------------|
A|----------------------------------------------------------------------------|
E|----------------------------------------------------------------------------|

e
e|-0--------------------------------------------------7---7----7--------------|
B|----4--4--4--4--4b-4b-4b--4-0-----------------------8---8----8--------------|
G|--------------------------------3--8--3--8--3--8----9---9----9--------------|
D|---------------------------------------------------10--10----9--------------|
A|----------------------------------------------------------------------------|
E|----------------------------------------------------------------------------|


Outro:

e|----------------------------------------------------------------------------|
B|----------------------------------------------------------------------------|
G|----------------------------------------------------------------------------|
D|------2---3---0---2---3---2---0---------------------------------------------|
A|--3-------------------------------0---2---3---------------------------------|
E|----------------------------------------------------------------------------|
Tap to rate this tab
 
# A B C D E F G H I J K L M N O P Q R S T U V W X Y Z