Song name
# A B C D E F G H I J K L M N O P Q R S T U V W X Y Z

Misc Unsigned Bands - Fighting Aurora - One Last Look tab

Fighting Aurora
One Last Look Tabs

Standard E Tuning
Listen to the song for rhythm 
LEAD GUITAR FOR INTRO/CHORUS/BRIDGE on the bottom of the page!
X= Don't Play


INTRO REP 2X
e---------------------|
b---------------------|
g-7----7----7----7----|
d-7----7----7----7----|
a-5----0----x----x----|
e------x----7----5----|

VERSE REP 2X
I believe so many things..                   To prove it wrong..
e---------------------------------|  e---------------------------------|
b---------------------------------|  b---------------------------------|
g---7-----7-----7---7-----7-----7-|  g---7-----7-----7---7-----7-------|
d-----7-----7---------7-----7-----|  d-----7-----7---------7-----------|
a-5-----5-----5---0-----0-----0---|  a---------------------------------|
e---------------------------------|  e-7-----7-----7---5-----5---------|
        REPEAT 3X                                continued..

CHORUS REP 2X
e---------------------|
b---------------------|
g-7----7----7----7----|
d-7----7----7----7----|
a-5----0----x----x----|
e------x----7----5----|

VERSE REP 2X
I believe so many things..                    So prove me wrong..
e---------------------------------|  e---------------------------------|
b---------------------------------|  b---------------------------------|
g---7-----7-----7---7-----7-----7-|  g---7-----7-----7---7-----7-------|
d-----7-----7---------7-----7-----|  d-----7-----7---------7-----------|
a-5-----5-----5---0-----0-----0---|  a---------------------------------|
e---------------------------------|  e-7-----7-----7---5-----5---------|
        REPEAT 3X                                continued..

CHORUS REP 2X
e---------------------|
b---------------------|
g-7----7----7----7----|
d-7----7----7----7----|
a-5----0----x----x----|
e------x----7----5----|


BRIDGE REP 8X
e-----------------------|
b-----------------------|
g-7--7--7----7--7--7----|
d-7--7--7----7--7--7----|
a-x--x--x----x--x--x----|
e-7--7--7----5--5--5----|



LEAD

Lead guitar for Intro/chorus
e-5---5---5---5---0----0----0-----0--------------------------------|
b---7---7---7---7---10---10---10----10---7---7---7---7-------------|
g--------------------------------------9---9---9---9----7-7-7-7-7--|
d------------------------------------------------------------------|
a------------------------------------------------------------------|
e------------------------------------------------------------------|

Lead guitar for Bridge
e------------------0---0---0---0-----------------------------------|
b-3---3---3---3------------------2---2---2---2---3---3---3---3-----|
g---2---2---2---2----2---2---2-----2---2---2---2---2---2---2---2---|
d------------------------------------------------------------------|
a------------------------------------------------------------------|
e------------------------------------------------------------------|

Thanks For looking up the tabs!
Let me know if you want any other songs tabbed from Fighting Aurora!

To hear Fighting Aurora's music, go to www.myspace.com/fightingaurora
Tap to rate this tab
# A B C D E F G H I J K L M N O P Q R S T U V W X Y Z