Song name
# A B C D E F G H I J K L M N O P Q R S T U V W X Y Z

Misc Unsigned Bands - Farsighted - The Only Mark We Could Leave tab

-------------------------------------------------------------------------------
		THE ONLY MARK WE COULD LEAVE - Farsighted
-------------------------------------------------------------------------------
Tabbed by:Rafa88offspring
Email:rafa88offspring@hotmail.com

Tuning:Drop D (DADgbe)

I was asked to tab this song, by this Canadian band who apparently disbanded 2
years ago, so enjoy!


http://www.myspace.com/farsighted  


Intro
Guitar 1
e|----------------------------------------------------------|
B|----------------------------------------------------------|
G|----------------------------------------------------------|
D|-----6---5---3-----3---3h5-6-----8---5h6p5-----5---5h6p5--|
A|-3-3---3---3---4-4---4---------------------6-6---6--------|
D|-----------------------------6-6---6----------------------|

Guitar 2
e|-------------------------------------------------------------------------|
B|-------------------------------------------------------------------------|
G|-------------------------------55-666-55-666-1515151515-13-121212121212--|
D|-33-333-333-333-11-111-111-111-55-666-55-666--x-x-x-x-x--x--x-x-x-x-x-x--|
A|-33-333-333-333-11-111-111-111-33-444-33-444-1313131313-11-101010101010--|
D|-33-333-333-333-11-111-111-111-------------------------------------------|

Verse
Guitar 1
e|----------------------------------------------------------|
B|----------------------------------------------------------|
G|----------------------------------------------------------|
D|-----6---5---3-----3---3h5-6-----8---5h6p5-----5---5h6p5--|
A|-3-3---3---3---4-4---4---------------------6-6---6--------|
D|-----------------------------6-6---6----------------------|

Bridge
Guitar 1
e|--------------------------------------------------------------|
B|--------------------------------------------------------------|
G|----------------66-666-666-666-55-555-555/8\6-----------------|
D|-33-333-333-333-66-666-666-666-xx-xxx-xxx/x\x-55-555-555/6\5--|
A|-33-333-333-333-44-444-444-444-33-333-333/6\4-xx-xxx-xxx/x\x--|
D|-33-333-333-333-------------------------------33-333-333/4\3--|

e|------------------------------------------------------------------|
B|------------------------------------------------------------------|
G|----------------66-666-666-666-55-555-555/8\6---------------------|
D|-33-333-333-333-66-666-666-666-xx-xxx-xxx/x\x-55-555-5-5-6-5-3----|
A|-33-333-333-333-44-444-444-444-33-333-333/6\4-xx-xxx-----------6--|
D|-33-333-333-333-------------------------------33-333--------------|

Guitar 2
e|---------------------------------------------------------------|
B|---------------------------------------------------------------|
G|---------------------------------------------------------------|
D|-33-333-333-333-66-666-666-666-11-111-111-111-88-888-888-10-5--|
A|---------------------------------------------------------------|
D|---------------------------------------------------------------|

Chorus
Guitar 1
e|------------------------------------------------------------|
B|------------------------------------------------------------|
G|----------------------------------55555/666/8888------------|
D|-3-33-333333-6666666-555555-33333-55555/666/8888-888888888--|
A|----------------------------------33333/444/6666-888888888--|
D|-------------------------------------------------888888888--|

Guitar 2
e|------------------------------|
B|------------------------------|
G|--------666666--------888888--|
D|-333333-666666-666666-888888--|
A|-333333-444444-666666-666666--|
D|-333333--------666666---------|

Bridge 2 (to verse)
Guitar 1
e|----------------------------------------------------------|
B|----------------------------------------------------------|
G|----------------------------------------------------------|
D|-----6---3h5h6-----6---3h5h6-----8---5h6h8-----8---5h6h8--|
A|-3-3---3-------3-3---3-------4-4---4-------4-4---4--------|
D|----------------------------------------------------------|

e|---------------------------------------------|
B|---------------------------------------------|
G|---------------------------------------------|
D|-----6---3h5h6-----6---3h5h6-55555/3/111111--|
A|---------------------------------------------|
D|-6-6---6-------6-6---6-----------------------|

Guitar 2
e|-------------------------------------------------------------------------|
B|-------------------------------------------------------------------------|
G|-------------------------------55-666-55-666-1515151515-13-121212121212--|
D|-33-333-333-333-11-111-111-111-55-666-55-666--x-x-x-x-x--x--x-x-x-x-x-x--|
A|-33-333-333-333-11-111-111-111-33-444-33-444-1313131313-11-101010101010--|
D|-33-333-333-333-11-111-111-111-------------------------------------------|

Ending of 2nd Verse
Guitar 1 & 2
e|-------------------|
B|-------------------|
G|-88888888-9999999--|
D|-88888888-9999999--|
A|-66666666-7777777--|
D|-------------------|

Interlude 
Guitar 1
e|-------------------------------|
B|-------------------------------|
G|-------------------------------|
D|-------------------------------|
A|------4-3-3h4-------4-3-4-6-8--|
D|-3----------------3------------|

Guitar 2
e|---------------------|
B|---------------------|
G|-5---/10-8-10-12-13--|
D|---------------------|
A|---------------------|
D|---------------------|

Guitar 1
(it uses pinch harmonics in some of those notes, you can randomize them)
e|-------------------------------------------------------------|
B|-------------------------------------------------------------|
G|----------------------8--------------------------------------|
D|-----------------8--------------5---5-------5-------5--------|
A|-8-8-11-8-10-8-8---10----8--6-6---6---6-5-6---6-5-6---6-5-6--|
D|-------------------------------------------------------------|

e|-----------------------------------------------------------------|
B|-----------------------------------------------------------------|
G|-----------------------------------------------------------------|
D|--------------------------------------3---6-----5---3-----3h5h6--|
A|-3-3-6-3-3-6-3-6-3-3-6-3-3-6-3-6--4-4---4---4-4---4---4-4--------|
D|-----------------------------------------------------------------|

The last 2 times, it goes like this:
Guitar 1
e|-------------------------------------------------------------|
B|-------------------------------------------------------------|
G|----------------------8--------------------------------------|
D|-----------------8--------------5---5-------5-------5--------|
A|-8-8-11-8-10-8-8---10----8--6-6---6---6-5-6---6-5-6---6-5-6--|
D|-------------------------------------------------------------|

e|----------------------------------------------|
B|----------------------------------------------|
G|----------------------------------6666666666--|
D|-5555555555555555555555555555555--6666666666--|
A|-3-3-6-3-3-6-3-6-3-3-6-3-3-6-3-6--4444444444--|
D|----------------------------------------------|

Guitar 2 
(palm muted)
e|------------------------------------------------|
B|------------------------------------------------|
G|-------------------------5555555555-6666666666--|
D|-33333333333-11111111111-5555555555-6666666666--|
A|-33333333333-11111111111-3333333333-4444444444--|
D|-33333333333-11111111111------------------------|

Last part before Last Chorus
Guitar 1
e|-----------------------------------------------------|
B|-----------------------------------------------------|
G|-1313131313-1212121212121212-88888888888-6666666666--|
D|--x-x-x-x-x--x-x-x-x-x-x-x-x-xxxxxxxxxxx-xxxxxxxxxx--|
A|-1111111111-1010101010101010-66666666666-8888888888--|
D|-----------------------------------------------------|

Guitar 2
e|------------------------------------------------|
B|------------------------------------------------|
G|-------------------------5555555555-6666666666--|
D|-33333333333-11111111111-5555555555-6666666666--|
A|-33333333333-11111111111-3333333333-4444444444--|
D|-33333333333-11111111111------------------------|

Ending
Guitar 1
e|---------|
B|---------|
G|---------|
D|-3-33-3--|
A|-3-33-3--|
D|-3-33-3--|

Guitar 2
e|-------------|
B|-------------|
G|-10-1010-10--|
D|-10-1010-10--|
A|--8--8-8--8--|
D|-------------|


| /  slide up
| \  slide down
| h  hammer-on
| p  pull-off
| ~  vibrato
| +  harmonic
| x  Mute note
===============================================================================
Tap to rate this tab
# A B C D E F G H I J K L M N O P Q R S T U V W X Y Z