Song name
# A B C D E F G H I J K L M N O P Q R S T U V W X Y Z

Misc Unsigned Bands - Viricidal - Windstorm tab

|--------------------------------------------------------------------------|
|--------------------------------------------------------------------------|
|-----------------------------------------------------------6*-------------|
|--------------------------------------------------------------------------|
|----5----1----4----5---1h4p1-----5----1----4---5h8p5-4h7p4----------------|
|-00---00---00---00---0--------00---00---00---0----------------------------|

|--------------------------------------------------------------------------|
|--------------------------------------------------------------------------|
|-----------------------------------------------7h10p7h10p7-6h9p6h9p6------|
|--------------------------------------------------------------------------|
|----5----1----4----5---1h4p1-----5----1----4------------------------------|
|-00---00---00---00---0--------00---00---00---0----------------------------|

|-------------------------------------------------------9p6----------------|
|------------------------------------------------------8---8---------------|
|7----3----6-------------------7------3------6------6/9-----9p6------------|
|7----3----6-------------------7------3------6-----5-----------8-----------|
|5----1----4-------------------5------1------4--4h7------------------------|
|--00---00----0-0-0-00-0-0-0-0---00-0---00-0---0---------------------------|

|--------------------------------------------------------------------------|
|--------------------------------------------------------------------------|
|7----3----6-------------------7------3------6---7107107107107-696969696---|
|7----3----6-------------------7------3------6-----------------------------|
|5----1----4-------------------5------1------4-----------------------------|
|--00---00---000-000-000-000-----00-0---00-0---0---------------------------|

|--------------------------------------------------------------------------|
|--------------------------------------------------------------------------|
|--------------------------------------------------------------------------|
|4-3-6-01-4-3----4--3--6--0-1--4--3--4-3-4---------------------------------|
|4-3-6-01-4-3----3--2--5--0-0--3--2--3-2-3--4*-----------------------------|
|4-3-6-01-4-3----4--3--6--0-1--4--3--4-3-4---------------------------------|

|--------------------------------------------------------------------------|
|--------------------------------------------------------------------------|
|-----------------5/7------------------------------5/7---8-8-8-8-8/7-5/7---|
|0~-00~-----------5/7------------------------------5/7---8-8-8-8-8/7-5/7---|
|0~-00~---4-3-6-0-3/5-000-0-0-0~00-0-0-0~--4-3-6-0-3/5---6-6-6-6-6/5-3/5---|
|0~-00~---4-3-6-0-----000-0-0-0~00-0-0-0~--4-3-6-0-----0-------------------|

|--------------------------------------------------------------------------|
|--------------------------------------------------------------------------|
|--------5/7--------------------------5/7---8-8-8-8-8/7-5/7----------------|
|--------5/7--------------------------5/7---8-8-8-8-8/7-5/7----------------|
|4-3-6-0-3/5-0-0---0-0--------4-3-6-0-3/5---6-6-6-6-6/5-3/5----------------|
|4-3-6-0-----0-0---0-0--------4-3-6-0-----0--------------------------------|

|--------------------------------------------------------------------------|
|--------------------------------------------------------------------------|
|--------------------------------------------------------------------------|
|00-00-00-00-00-00-00-00-4-3-0-4-3-1-0-------------------------------------|
|00-00-00-00-00-00-00-00-4-3-0-4-3-1-0--4*---------------------------------|
|00-00-00-00-00-00-00-00-4-3-0-4-3-1-0-------------------------------------|

|---------------------13-------17-13---------------------------------------|
|------------15----------15----------15------------------------------------|
|------14-------14----------14----------14---------------------------------|
|---15----15-------15----------------------15------------------------------|
|17-------------------------------------------17---------------------------|
|--------------------------------------------------------------------------|

|---------------------12-------16-12---------------------------------------|
|------------14----------14----------14------------------------------------|
|------13-------13----------13----------13---------------------------------|
|---14----14-------14----------------------14------------------------------|
|16-------------------------------------------16---------------------------|
|--------------------------------------------------------------------------|

|--------------------------------------------------------------------------|
|--------------------------------------------------------------------------|
|--------------------------------------------------------------------------|
|--------------------------------------------------------------------------|
|0-000---00000000----4-444---44444444--------------------------------------|
|0-000---00000000----4-444---44444444--------------------------------------|
Tap to rate this tab
# A B C D E F G H I J K L M N O P Q R S T U V W X Y Z