Song name
# A B C D E F G H I J K L M N O P Q R S T U V W X Y Z

Misc Unsigned Bands - Midnights Embrace - Forever Lost tab

e:---3-3-2------------------|
b:--------3--0--------------|
g:--------------------------|   X2
d:--------------------------|
a:--------------------------|
E:--------------------------|

e:---3-2-----0--------------|
b:------3--7----------------|
g:--------------------------|   X2
d:--------------------------|
a:--------------------------|
E:--------------------------|

e:-------------------------------------|
b:-------------------------------------|
g:--777777-555555-999999-333333---0----|
d:--------------------------------0----|
a:-------------------------------------|
E:-------------------------------------|

Tap to rate this tab
# A B C D E F G H I J K L M N O P Q R S T U V W X Y Z