Guitaretab - guitar tabs
Song name
# A B C D E F G H I J K L M N O P Q R S T U V W X Y Z

Misc Unsigned Bands - Midnights Embrace - Fresh Blood tab

e:|-------------------------|
B:|-------------------------|
G:|-------------------------|   X2
D:|-------------------------|
A:|-------------------------|
E:|--33-5-2---33-5-2--------|
[ Tab from: http://www.guitaretab.com/m/misc-unsigned-bands/101278.html ]
e:|-------------------------|
B:|-------------------------|
G:|-------------------------|
D:|-------------------------|    X3
A:|-------------------------|
E:|--33-7-2-0--33-7-2-0-----|

e:|-------------------------|
B:|-------------------------|
G:|-------------------------|
D:|-------------------------|
A:|----------3-----3-------3|
E:|--555-7-5---555---777-5--|

e:|-------------------------|
B:|-------------------------|
G:|-------------------------|
D:|----------55--7-5-3------|
A:|-----55-------------5----|
E:|--55------------------5-3|
Related for Midnights Embrace - Fresh Blood tab
Advertisement will be closed in 10 seconds