Guitaretab - guitar tabs
Song name
# A B C D E F G H I J K L M N O P Q R S T U V W X Y Z

Misc Unsigned Bands - Painted South - Spruce Pine North Carolina tab

Intro: X3

e|----------------------------------------------------------------------------|
B|----------------------------------------------------------------------------|
G|----------------------------------------------------------------------------|
D|----------------------------------------------------------------------------|
A|------------3--0------------------------------------------------------------|
E|--0-0-0--3------------------------------------------------------------------|


Verse 1:

     Light has begun
e|----------------------------------------------------------------------------|
B|----------------------------------------------------------------------------|
G|----------------------------------------------------------------------------|
D|----------------------------------------------------------------------------|
A|------------3--0------------------------------------------------------------|
E|--0-0-0--3------------------------------------------------------------------|

  In a town of only one
e|----------------------------------------------------------------------------|
B|----------------------------------------------------------------------------|
G|----------------------------------------------------------------------------|
D|----------------------------------------------------------------------------|
A|------------3--0------------------------------------------------------------|
E|--0-0-0--3------------------------------------------------------------------|

   the midnight beem
e|----------------------------------------------------------------------------|
B|----------------------------------------------------------------------------|
G|----------------------------------------------------------------------------|
D|----------------------------------------------------------------------------|
A|------------3--0------------------------------------------------------------|
E|--0-0-0--3------------------------------------------------------------------|

  is bursting at the seem
e|----------------------------------------------------------------------------|
B|----------------------------------------------------------------------------|
G|----------------------------------------------------------------------------|
D|----------------------------------------------------------------------------|
A|------------3--0------------------------------------------------------------|
E|--0-0-0--3------------------------------------------------------------------|


Chorus: (do it 2 times)
 Em          C                    G  D
spruce pine north carolina get it right
 Em          C                    G           D
spruce pine north carolina get it right next time

Verse 2:

  Now the hair is raised
e|----------------------------------------------------------------------------|
B|----------------------------------------------------------------------------|
G|----------------------------------------------------------------------------|
D|----------------------------------------------------------------------------|
A|------------3--0------------------------------------------------------------|
E|--0-0-0--3------------------------------------------------------------------|

[ Tab from: http://www.guitaretab.com/m/misc-unsigned-bands/101292.html ]
   the runner will be taised
e|----------------------------------------------------------------------------|
B|----------------------------------------------------------------------------|
G|----------------------------------------------------------------------------|
D|----------------------------------------------------------------------------|
A|------------3------0--------------------------------------------------------|
E|--0-0-0--3------------------------------------------------------------------|

  magic eyes come forword
e|----------------------------------------------------------------------------|
B|----------------------------------------------------------------------------|
G|----------------------------------------------------------------------------|
D|----------------------------------------------------------------------------|
A|--------------3----0--------------------------------------------------------|
E|--0-0-0---3-----------------------------------------------------------------|

  the plant is devowered
e|----------------------------------------------------------------------------|
B|----------------------------------------------------------------------------|
G|----------------------------------------------------------------------------|
D|----------------------------------------------------------------------------|
A|--------------3-----0-------------------------------------------------------|
E|--0-0-0----3----------------------------------------------------------------|


Chorus:


Solo:
(guitar 1: G)
(guitar 2: TABS)

e|----------------------------------------------------------------------------|
B|----------------------------------------------------------------------------|
G|----------------------------------------------------------------------------|
D|----------------------------------------------------------------------------|
A|---------0--3--0--3--0--3--------------------------3-------------3~~~p0-----|
E|--0---3--------------------3-3p0--3p0--3p0--3p0--0---3p0--0-0-0-------------|

e|----------------------------------------------------------------------------|
B|----------------------------------------------------------------------------|
G|----------------------------------------------------------------------------|
D|----------------------3--3---3--0-------------------------------------------|
A|-----------------------------------0--0--------------------------3p0--3p0---|
E|--0-3--3--3--3--3p0---------------------3--0--3~~~---3--4-4-4--3------------|

e|----------------------------------------------------------------------------|
B|----------------------------------------------------------------------------|
G|----------------------------------------------------------------------------|
D|-----------------0--2-3-22----0---0-----------------------------------------|
A|---------3-3-3-----------------------3-----------------3--0-----------------|
E|-0--3--3-------------------------------33---0-0-0---3-----------------------|

e|--0--0--03030303030303030303030303030303030303030303030--000------------------|
B|------------------------------------------------------------------------------|
G|-----------------------------------------------------------------2--0--2~~----|
D|------------------------------------------------------------------------------|
A|------------------------------------------------------------------------------|
E|------------------------------------------------------------------------------|
Related for Painted South - Spruce Pine North Carolina tab
×
Painted South - Spruce Pine North Carolina