Song name
# A B C D E F G H I J K L M N O P Q R S T U V W X Y Z

Misc Unsigned Bands - Clutter In The Living Room - Dna Bop tab

Song Name: DNA BOP
Artist Name: Clutter in the Living Room

E|---5-5-5-5-5-5-5-----------5-5-5-5-5-5-5-----------5-5-5-5-5-5-5-----|
B|---7-7-7-7-7-7-7-5-5--7----7-7-7-7-7-7-7-5-5--7----7-7-7-7-7-7-7-5-5-|
G|-----------------7-7--9------------------7-7--9------------------7-7-|
D|---------------------------------------------------------------------|
A|---------------------------------------------------------------------|
E|---------------------------------------------------------------------|


E|------5-5-5-5---------5-5-5-5-5-5-5-5--------------------------------|
B|-7----7-7-7-7-5-5-5-5-7-7-7-7-7-7-7-7--------------------------------|
G|-9------------7-7-7-7------------------------------------------------|
D|---------------------------------------------------------------------|
A|---------------------------------------------------------------------|
E|---------------------------------------------------------------------|

Repeat this part for the whole song and then the guitar stops for the HEY HO, LET'S GO! 
at the beginning and at the end. Go Rock!!
Tap to rate this tab
# A B C D E F G H I J K L M N O P Q R S T U V W X Y Z