Song name
# A B C D E F G H I J K L M N O P Q R S T U V W X Y Z

Misc Unsigned Bands - The Tunnel Kings - Golden Girl tab

--------------------------------------------|
--------------------------------------------|
--------------------------------------------|
--------------------------2---3---5--3--2---|
------2--3-----0---1---3--------------------|
----3-------1-------------------------------|

  do this 3 times and on the 4 time do this
--------------------------------------------|
--------------------------------------------|
--------------------------------------------|
----------------------15--16--18--16-15-----|
------2--3-----0--1/16----------------------|
----3-------1-------------------------------|
   the main riff
--------------------------------------------|
--------------------------------------------|
--------------------------------------------|
-----------------------5-5-5-5-5-5----------|
---5-5-5----3-3-3------3-3-3-3-3-3----------|
---3-3-3----1-1-1---------------------------|

end solo

--------------------------------------------|
--------------------------------------------|
--------------------------------------------|
----------------14-14-14-14-15-14-----------|
----------14/15-----------------------14/15-|
----15-15------------------------15-15------|
Tap to rate this tab
# A B C D E F G H I J K L M N O P Q R S T U V W X Y Z