Guitaretab - guitar tabs
Song name
# A B C D E F G H I J K L M N O P Q R S T U V W X Y Z

Misc Unsigned Bands - Belketre - Guilty tab

#------------------------------------PLEASE  NOTE---------------------------------------------#
#This file is the author's own work and represents their interpretation of the #
#song. You may only use this file for private study, scholarship, or research#
#---------------------------------------------------------------------------------------------#

Band   Belketre 
Album: March to the Black Holocaust
Song: Guilty

Transcribed By: Elathen
Email:         ningalia87@yahoo.com

Copyright (c)  Embassy Productions
Version 1.0 - 1/4/2008

Tuning E A D G B E


. - palm mute / - slide up to
 - slide down to ~ - vibrato
h - hammer on p - pull off
, - slight palm mute () - ghost note, sustained note
" " tremolo note <> - Trill

Suffixes for bend
f - full bend h - half bend
ph - pinched harmonic q - quarter bend
t - tap bend * - see comment
^ - Hold bend r - release bend
x  Staccato ~ - vibrato bend

Riff 1 
|-------------------------------------------|
|-------------------------------------------| 
|-------------------------------------------| 
|-------------------------------------------|  
|--333-333-333--666-666-66--555-555-555-----|
|--000-000-000--000-000-00--000-000-000-----|

Riff 2
|-----------------------------------------|
|-----------------------------------------| 
|-----------------------------------------| 
|-33333333--444444444--00000000-----------|  
|-33333333--666666666--22222222-----------|
|-----------------------------------------|

Riff 3
|-----------------------------------------|
|-----------------------------------------| 
|-33333---666666---555555---444444--------| 
|-33333---666666---555555---555555--------|  
|-----------------------------------------|
|-----------------------------------------|
[ Tab from: http://www.guitaretab.com/m/misc-unsigned-bands/101351.html ]
Riff 2b
|---------------------------------------------|
|---------------------------------------------| 
|---------------------------------------------| 
|-0000000---44444444---33333333---------------|  
|-2222222---66666666---55555555---------------|
|---------------------------------------------|

Riff 4 - Interlude
|--------------------------------------------|
|--------------------------------------------| 
|---------------------0---0---0----0---0-----| 
|---5--5--5---5----5----6---6---6----6---6---|  
|-6--6---6--6---6----------------------------|
|--------------------------------------------|

Riff 5 - Fill
|--------------------------------------|
|--------------------------------------| 
|--------------------------------------| 
|--------------------------------------|  
|-222222---0000000-2222222--33333333---|
|--------------------------------------|
                                  
|---------------------------------------------|
|---------------------------------------------| 
|-3----3^---3^--------4-----------------------| 
|---------------------------------------------|Gtr 2  
|---------------------------------------------|
|---------------------------------------------|

Play Riff 1 x 5

Play Riff 2 x 4

Play Riff 3 x 4

Riff 5
|-----------------------------------------|
|-----------------------------------------| 
|-----------------------------------------| 
|--2222222---44444444---3333333333--------|  
|--3333333---66666666---5555555555--------|
|-----------------------------------------|

Riff 6 - Fill 2
|-----------------------------------------|
|-----------------------------------------| 
|-----------------------------------------| 
|-00000000--2222222222--1111111111--------|  
|-22222222--4444444444--3333333333--------|
|-----------------------------------------|

Outro
|-------------------------------|
|-------------------------------| 
|-------------------------------| 
|-----------------222222--------|  
|-222222--333333--444444--------|
|-------------------------------|

Play Riff 6 x 8 - End.

Belketre Myspace Page
http://www.myspace.com/belketrefans

Related for Belketre - Guilty tab