Song name
# A B C D E F G H I J K L M N O P Q R S T U V W X Y Z

Misc Unsigned Bands - Knights Of Icaria - We Three Kings tab

Here it is.

(1)
e0---------------|
B--3-1---0-1-0---| x2 then (2)
G------2-------2-|
D----------------|
A----------------|
E----------------|

(2)
e---------------3------------------------|
B1--1-3--3-5--5---5-3-1-3-1-0------------|
G-----------------------------4-2-0------| Then(3)
D-----------------------------------2--0-|
A----------------------------------------|
E----------------------------------------|

(3)
e-------------------|
B-3~--3-3--0-3-0-3~-|
G-------------------|
D-------------------|
A-------------------|
E-------------------|


I got this by ear when I heard them live. Any suggestions or anything that needs to be 
e-mail me. yoreruryu@mail.com
Tap to rate this tab
# A B C D E F G H I J K L M N O P Q R S T U V W X Y Z