Song name
# A B C D E F G H I J K L M N O P Q R S T U V W X Y Z

Misc Unsigned Bands - Asid - Hippo tab

verse 1
|------------------------------------------------------------|
|------------------------------------------------------------|
|-222-2-222-444-3-333--222-2-222-444-7-777----X2-------------|
|-222-2-222-555-4-444--222-2-222-555-7-777-------------------|
|-111-0-000-333-2-222--111-0-000-333-5-555-------------------|
|------------------------------------------------------------|
chorus
|------------------------------------------------------------|
|------------------------------------------------------------|
|------------------------------------------------------------|
|-111-2-222-777-5-555--111-2-222-555-4-444------X2-----------|
|-111-2-222-777-5-555--111-2-222-333-2-222-------------------|
|-111-0-000-555-3-333--111-0-000-333-3-333-------------------|
verse 2
|------------------------------------------------------------|
|------------------------------------------------------------|
|-222-2-222-444-3-333--222-2-222-444-7-777----X3-------------|
|-222-2-222-555-4-444--222-2-222-555-7-777-------------------|
|-111-0-000-333-2-222--111-0-000-333-5-555-------------------|
|------------------------------------------------------------|
chorus 2
|---------------------------------------------|-----------------------------|
|---------------------------------------------|-----------------------------|
|---------------------------------------------|-----------------------X2----|
|-111-2-222-777-5-555--111-2-222-555-4-444--X2|11-22-77-55--11-22-55-44-----|
|-111-2-222-777-5-555--111-2-222-333-2-222----|11-22-77-55--11-22-33-22-----|
|-111-0-000-555-3-333--111-0-000-333-3-333----|11-00-55-33--11-00-33-33-----|
chorus 2(continue)
|------------------------------------------------------------|
|------------------------------------------------------------|
|------------------------------------------------------------|
|-111-2-222-777-5-555--111-2-222-555-4-444------X1-----------|
|-111-2-222-777-5-555--111-2-222-333-2-222-------------------|
|-111-0-000-555-3-333--111-0-000-333-3-333-------------------|
verse 3
|------------------------------------------------------------|
|------------------------------------------------------------|
|-222-2-222-444-3-333--222-2-222-444-7-777----X2-------------|
|-222-2-222-555-4-444--222-2-222-555-7-777-------------------|
|-111-0-000-333-2-222--111-0-000-333-5-555-------------------|
|------------------------------------------------------------|
Verse 3(continue)
|----------------------------------------------------------------------------|
|----------------------------------------------------------------------------|
|-22222222-22222222-44444444-33333333-22222222-22222222-44444444-77777777----|X1
|-22222222-22222222-55555555-44444444-22222222-22222222-55555555-77777777----|
|-11111111-00000000-33333333-22222222-11111111-00000000-33333333-55555555----|
|----------------------------------------------------------------------------|
chorus
|-----------------------------------------------------|
|-----------------------------------------------------|
|-----------------------------------------------------|
|-111-2-222-777-5-555--111-2-222-555-4-444------X2----|
|-111-2-222-777-5-555--111-2-222-333-2-222------------|
|-111-0-000-555-3-333--111-0-000-333-3-333------------|
chorus(continue)
|-------------------------------------------------------|
|-------------------------------------------------------|
|-------------------------------------------------------|
|-{111-2-222-777-5-555--111-2-222-555-4-444}-----X2-----|
|-{111-2-222-777-5-555--111-2-222-333-2-222}------------|
|-{111-0-000-555-3-333--111-0-000-333-3-333}------------|
  {-----------------PM----------------------------------|
chorus(continue)
|-----------------------------------------------------|
|---------------------------------------------X3------|
|-111-2-222-777-5-555--111-2-222-555-4-444------------|
|-111-2-222-555-3-333--111-2-222-333-2-222------------|
|-111-2-222-555-3-333--111-2-222-333-2-222------------|
|-111-0-000-555-3-333--111-0-000-333-2-222------------|
Tap to rate this tab
# A B C D E F G H I J K L M N O P Q R S T U V W X Y Z