Song name
# A B C D E F G H I J K L M N O P Q R S T U V W X Y Z

Misc Unsigned Bands - Ace Transcription - As The Lights Fade tab

Ace Transcription website: http://www.myspace.com/acetranscription

So this song is pretty easy once u get the hang of it.
It's really fun to play i loved writing the riff for it.
The tuning is D A D G B E

have fun!

Intro:
e|----------------------|----------------------|-----------------------|
b|----------------------|----------------------|-----------------------|
g|----------------------|----------------------|-----------------------|
d|-----9---7---7h9--x2--|-----7---5---5h7--x2--|-----5---3---3h5--x2---|
a|--77---7---7----------|--55---5---5----------|--33---3---3-----------|
d|----------------------|----------------------|-----------------------|

e|----------------------|
b|----------------------|
g|----------------------|
d|-----5---3---3h5------|
a|--33---3---3----------|
d|----------------------|


Verse:
e|----------------------|-----------------------|
b|----------------------|-----------------------|
g|----------------------|-----------------------|
d|-----9---7---7h9--x2--|-----7---5---5h7--x2---|
a|--77---7---7----------|--55---5---5-----------|
d|----------------------|-----------------------|
                                                  > x2
e|----------------------|-----------------------|
b|----------------------|-----------------------|
g|----------------------|-----------------------|
d|-----5---3---3h5--x2--|-----4---2---2h4--x2---|
a|--33---3---3----------|--22---2---2-----------|
d|----------------------|-----------------------|

Chorus:
e|-------------------------------------------------------|
b|-------------------------------------------------------|
g|--3-3-3------------------------------------------------|
d|--3-3-3--33-3-33-3---5-5-5---11-1-11-1-11--------------|
a|--1-1-1--33-3-33-3---5-5-5---11-1-11-1-11--------------|
d|---------33-3-33-3---5-5-5---11-1-11-1-11--------------|

e|-------------------------------------------------------|
b|-------------------------------------------------------|
g|--3-3-3-----------------------88-8-77-7----------------|
d|--3-3-3--33-3-33-3---5-5-5----88-8-77-7----------------|
a|--1-1-1--33-3-33-3---5-5-5----66-6-55-5----------------|
d|---------33-3-33-3---5-5-5-----------------------------|

e|-------------------------------------------------------|
b|-------------------------------------------------------|
g|--3-3-3------------------------------------------------|
d|--3-3-3--33-3-33-3---5-5-5---11-1-11-1-11--------------|
a|--1-1-1--33-3-33-3---5-5-5---11-1-11-1-11--------------|
d|---------33-3-33-3---5-5-5---11-1-11-1-11--------------|

e|-------------------------------------------------------|
b|-------------------------------------------------------|
g|--3-3-3------------------------------------------------|
d|--3-3-3--33-3-33-3---5-5-5---11-1-11-1-11--------------|
a|--1-1-1--33-3-33-3---5-5-5---11-1-11-1-11--------------|
d|---------33-3-33-3---5-5-5---11-1-11-1-11--------------|

e|-------------------------------------------------------|
b|-------------------------------------------------------|
g|--3-3-3-----------------------88-8-77-7----------------|
d|--3-3-3--33-3-33-3---5-5-5----88-8-77-7----------------|
a|--1-1-1--33-3-33-3---5-5-5----66-6-55-5----------------|
d|---------33-3-33-3---5-5-5-----------------------------|


Bridge:
e|-----------------------------------------------------------------------|
b|-----------------------------------------------------------------------|
g|---------------------------------------------------9--9--9--9----------|
d|----3---1---1h3-----5---3---3h5-----7---5---5h7----9--9--9--9----------|
a|--1---1---1-------3---3---3-------5---5---5--------7--7--7--7----------|
d|-----------------------------------------------------------------------|

Repeat Verse
then repeat chorus


Outro:
e|-----------------------------------------------------------------------|
b|-----------------------------------------------------------------------|
g|-9-99999-9-999-9-9---7-77777-7-777-7-7---5-55555-5-555-5-5-------------|
d|-9-99999-9-999-9-9---7-77777-7-777-7-7---5-55555-5-555-5-5-------------|
a|-7-77777-7-777-7-7---5-55555-5-555-5-5---3-33333-3-333-3-3-------------|
d|-----------------------------------------------------------------------|

e|--------------------------|
b|--------------------------|
g|-4-44444---4--5--7--9-----|
d|-4-44444---4--5--7--9-----|       repeat x3
a|-2-22222---2--3--5--7-----|
d|--------------------------|

Bridge:
e|----------------------------------|
b|-------9------9-9-----------------|
g|-------7------7-7-----------------|
d|-00-0-----000---------x9----------|
a|-00-0-----000---------------------|
d|-00-0-----000---------------------|

e|-------------------------------------------------------|
b|-----9----9-7----11----11-11---13----13-13-------------|
g|-----7----7-7-----9-----9--9---11----11-11-------------|
d|-00----00-----00----00-------00---00-------------------|
a|-00----00-----00----00-------00---00-------------------|
d|-00----00-----00----00-------00---00-------------------|

e|------------------------------------------------|
b|-11-1313131113151513151315151717171517--s19>b---|
g|------------------------------------------------|
d|------------------------------------------------|
a|------------------------------------------------|
d|------------------------------------------------|
Tap to rate this tab
 
# A B C D E F G H I J K L M N O P Q R S T U V W X Y Z