Song name
# A B C D E F G H I J K L M N O P Q R S T U V W X Y Z

Misc Unsigned Bands - Heroes In Error - New Song tab

Tuning: drop A

this is how it's played live
it's also the rhythm guitar

intro
||----------------------------------|---------------------------------||
||o---------------------------------|----------------10--------------o||
||----------------------------------|----------10----x---10------10---||
||--0--0----------------------------|-8----10--8-----8---8---10--8----||x4
||o-0--0-000-000-000-000-000-000-0--|-8--8-8-8-8-8-8-8-8-8-8-8-8-8-8-o||
||--0--0-000-000-000-000-000-000-0--|-8--8-8-8-8-8-8-8-8-8-8-8-8-8-8--||
         ... ... ... ... ... ... .       .   .   . .   .   .   .   .

             breakdown A
|----------||--------------------------------------------------------|
|----------||o-------------------------------------------------------|
|----------||--------------------------------------------------------|
|----------||--------------------------------------------------------|
|--12\-----||o--00000-----00-00--00000000000-----00-00--00000000000--|
|--12\-----||---00000-----00-00--00000000000-----00-00--00000000000--|
                .....     .. ..  ...........     .. ..  ...........


|--------------------------------------------------||
|-------------------------------------------------o||
|--------------------------------------------------||
|--------------------------------------------------||x2
|--00-00--00000000000-----00-00--4h5p4h5p4h5p4h5--o||
|--00-00--00000000000-----00-00--------------------||
   .. ..  ...........     .. ..

verse (two step)
||----------------------------------------------------------------|
||o---------------------------------------------------------------|
||---10-10--------------------------------------------------------|
||---8--8------8--8-8--8------8--8-8--8------8--8-8--8------8--8--|
||o--8--8-8888-8--8-8--8-8888-8--8-8--8-8888-8--8-8--8-8888-8--8--|
||---8--8-8888-8--8-8--8-8888-8--8-8--8-8888-8--8-8--8-8888-8--8--|

|---------------------------------------------------------------||
|--------------------------------------------------------------o||
|---------------------------------------------------------------||
|-0--0------0--0-0--0------0--0-3--3------3--3-3--3------3--3---||x2
|-0--0-0000-0--0-0--0-0000-0--0-3--3-3333-3--3-3--3-3333-3--3--o||
|-0--0-0000-0--0-0--0-0000-0--0-3--3-3333-3--3-3--3-3333-3--3---||
       ....           ....           ....           ....

play open and the bass drum kicks 3 times.
|--------|
|--------|
|--------|
|-0~-----|
|-0~-----|
|-0~-----|

then the bridge..
                    (sweep)
||----------------------------------------------------|
||o---------------------------------------------------|
||------------------14h17p14--------------------------|
||---------------15---------15---------------15~--14~-|
||o--15/17~----17-------------17--16~---1616----------|
||----------------------------------------------------|


|------------------------------------------------||
|-----------------------------------------------o||
|------------------------------------------------||
|-------------12---------------------------------||x4
|---13~---------12~-----------------------------o||
|-----------------------12h15p12h15p11h14p11h14--||


third guitar comes in after 2 bars of the bridge with breakdown B
|------------------------------------------------------------------||
|o----------------------------------------------------------------o||
|------------------------------------------------------------------||
|---0-----0-0--------0-0----0000---0----000-0-----0---0-0--0--0----||
|o--0-----0-0--------0-0----0000---0----000-0-----0---0-0--0--0---o||
|---0-----0-0--------0-0----0000---0----000-0-----0---0-0--0--0----||
    .     . .        . .    ....   .    ... .     .   . .  .  .

guitar 1          guitar 2
|-----------|   |-----------|
|-----------|   |-----------|
|-----------|   |-----------|
|--0--0--0--|   |--0--0--0--|
|--0--0--0--|   |--0--0--0--|
|--0--0--0--|   |--0--0--0--|
   .  .  .         .  .  .

|-------------------------------------------------------------------||
|o-----------------------------------------------------------------o||
|-------------------------------------------------------------------||
|---------------0----0----0-----------------------------------------||x4
|o----------5/8~-8h7~-7\4--4/10p0-0--0--0-----000-0--0-0--0--0-----o||
|--0--0--0------------------------8--8--8-----888-8--8-8--8--8------||

end on
|----------|
|----------|
|----------|
|-0~-------|
|-0~-------|
|-0~-------|

| /  slide up
| \  slide down
| h  hammer-on
| p  pull-off
| ~  vibrato
| +  harmonic
| x  Mute note
===============================================================================
Tap to rate this tab
# A B C D E F G H I J K L M N O P Q R S T U V W X Y Z