Song name
# A B C D E F G H I J K L M N O P Q R S T U V W X Y Z

Misc Unsigned Bands - Symphonia - Keep Off The Glass tab

Keep Off The Glass
By:Symphonia

Standard tuning..

Intro:
Guitar1:
 |----------------------------|
 |----------------------------|
 |-----------6-7-9-------6-8b-|
 |------6-7-9-----8-7-6-7-----| x4
 |-6-7-9---------------8------|
 |----------------------------|

Guitar2:
 |-----------------------------|
 |-----------------------------|
 |-----------------------------|
 |-6-7-9--666666-777777-999999-| x2
 |-6-7-9--666666-777777-999999-|
 |-4-5-7--444444-555555-777777-|

Verse:
Guitar1:
 |------------------------------------------------------|
 |------------------------------------------------------|
 |-----------6-7-9-------6----------6-7-9-------6-------|
 |------6-7-9-----8-7-6-7------6-7-9-----8-7-6-7------8-|
 |-6-7-9---------------8--6-7-9---------------8--6-7-8--|
 |------------------------------------------------------|

 |------------------------------------------------------|
 |------------------------------------------------------|
 |-----------6-7-9-------6----------6-7-9-------6-------|
 |------6-7-9-----8-7-6-7------6-7-9-----8-7-6-7------8-|
 |-6-7-9---------------8--6-7-9---------------8--6-7-8--|
 |------------------------------------------------------|

Guitar2:
 |-----------------------------|
 |-----------------------------|
 |--------222222--------666666-|
 |-444444-222222-555555-xxxxxx-| x4
 |-444444-000000-555555-444444-|
 |-222222--------333333--------|

Pre-Chorus:
 |-------------------------------------------|
 |-------------------------------------------|
 |----6-7-8-----8*---------6-7-8-----8*------|
 |-22------6-5-7--6-7-9-22------6-5-7--6-7-9-| x2
 |-22-------------------22-------------------|
 |-00-------------------00-------------------|

Chorus:
Guitar1:
 |-----------------------------------------------------------------|
 |-----------------t13p6h7h8p0-t14p6h8h9p0-7p0-p0-10p0-7p0-9p0-12b-|
 |-----------------------------------------------------------------|
 |---------66666666------------------------------------------------| x4
 |-44444444--------------------------------------------------------|
 |-----------------------------------------------------------------|

Guitar2:
 |-------------------------------------|
 |-------------------------------------|
 |-------------------33333333----------|
 |-44444444-66666666-33333333-66666666-| x4
 |-44444444-66666666-11111111-66666666-|
 |-22222222-44444444----------44444444-|
 
Verse:
Guitar1:
 |------------------------------------------------------|
 |------------------------------------------------------|
 |-----------6-7-9-------6----------6-7-9-------6-------|
 |------6-7-9-----8-7-6-7------6-7-9-----8-7-6-7------8-|
 |-6-7-9---------------8--6-7-9---------------8--6-7-8--|
 |------------------------------------------------------|

 |------------------------------------------------------|
 |------------------------------------------------------|
 |-----------6-7-9-------6----------6-7-9-------6-------|
 |------6-7-9-----8-7-6-7------6-7-9-----8-7-6-7------8-|
 |-6-7-9---------------8--6-7-9---------------8--6-7-8--|
 |------------------------------------------------------|


Pre-Chorus:
 |-------------------------------------------|
 |-------------------------------------------|
 |----6-7-8-----8*---------6-7-8-----8*------|
 |-22------6-5-7--6-7-9-22------6-5-7--6-7-9-| x2
 |-22-------------------22-------------------|
 |-00-------------------00-------------------|

Chorus:
Guitar1:
 |-----------------------------------------------------------------|
 |-----------------t13p6h7h8p0-t14p6h8h9p0-7p0-p0-10p0-7p0-9p0-12b-|
 |-----------------------------------------------------------------|
 |---------66666666------------------------------------------------| x4
 |-44444444--------------------------------------------------------|
 |-----------------------------------------------------------------|

Guitar2:
 |-------------------------------------|
 |-------------------------------------|
 |-------------------33333333----------|
 |-44444444-66666666-33333333-66666666-| x4
 |-44444444-66666666-11111111-66666666-|
 |-22222222-44444444----------44444444-|

then:
Guitar1:
 |----------------------------|
 |----------------------------|
 |-----------6-7-9-------6-8b-|
 |------6-7-9-----8-7-6-7-----| x4
 |-6-7-9---------------8------|
 |----------------------------|

Guitar2:
 |-----------------------------|
 |-----------------------------|
 |-----------------------------|
 |-6-7-9--666666-777777-999999-| x2
 |-6-7-9--666666-777777-999999-|
 |-4-5-7--444444-555555-777777-|

Chorus:
Guitar1:
 |-----------------------------------------------------------------|
 |-----------------t13p6h7h8p0-t14p6h8h9p0-7p0-p0-10p0-7p0-9p0-12b-|
 |-----------------------------------------------------------------|
 |---------66666666------------------------------------------------| x4
 |-44444444--------------------------------------------------------|
 |-----------------------------------------------------------------|

Guitar2:
 |-------------------------------------|
 |-------------------------------------|
 |-------------------33333333----------|
 |-44444444-66666666-33333333-66666666-| x4
 |-44444444-66666666-11111111-66666666-|
 |-22222222-44444444----------44444444-|

then:
 |-t12p5h7p0h8-t14p5h7p0h8-t12p5h7p0h8-t14p5h7p0h8-|
 |-------------------------------------------------|
 |-------------------------------------------------|
 |-------------------------------------------------|
 |-------------------------------------------------|
 |-------------------------------------------------|


 that's all...







Tap to rate this tab
# A B C D E F G H I J K L M N O P Q R S T U V W X Y Z