Song name
# A B C D E F G H I J K L M N O P Q R S T U V W X Y Z

Misc Unsigned Bands - Symphonia - Too Late tab

Too Late
By:Symphonia

 |-15-13-11-------------------------|-------------------------------------|
 |----------15-13-11----------------|-------------------------------------|
 |-------------------14-12-10-------|-------------------------------------|
 |----------------------------13-12-|-10-10-10-10-10-10-10-10-10-10-10-10-|
 |----------------------------------|-------------------------------------|
 |----------------------------------|-------------------------------------|

 |-------------------------|-6-6-6-6-10-10-10-10-15-15-15-15-|
 |-----------------8-8-8-8-|---------------------------------|
 |---------7-7-7-7---------|---------------------------------|
 |-8-8-8-8-----------------|---------------------------------|
 |-------------------------|---------------------------------|
 |-------------------------|---------------------------------|

 |-------------|-------------|
 |-------8p7p5-|-------8p7p5-|
 |-7p5p4-------|-7p5p4-------|
 |-------------|-------------|
 |-------------|-------------|
 |-------------|-------------|
 
 |-------------|-------------|
 |-------8p6p4-|-------8p0h5-|
 |-7p4p0-------|-7p5p4-------|
 |-------------|-------------|
 |-------------|-------------|
 |-------------|-------------|

 |-------------|--------------|
 |-------8p7p5-|-------10p9p7-|
 |-7p5p4-------|-7p5p0--------|
 |-------------|--------------|
 |-------------|--------------|
 |-------------|--------------|

 |-------------|-------------|
 |-------9p8p5-|-------9p7h8-|
 |-7p6p5-------|-7p5p0-------|
 |-------------|-------------|
 |-------------|-------------|
 |-------------|-------------|

 |-------------------------|-6-6-6-6-10-10-10-10-15-15-15-15-|
 |-----------------8-8-8-8-|---------------------------------|
 |---------7-7-7-7---------|---------------------------------|
 |-8-8-8-8-----------------|---------------------------------|
 |-------------------------|---------------------------------|
 |-------------------------|---------------------------------|

 |----------------------------|   
 |-----------------8--10------|
 |------------------------7---|    
 |--10-10-10-10-10------------|    
 |--10-10-10-10-10------------|
 |--8--8--8--8--8-------------|
    .  .  .  .  .

 |---------------------------|   |-------------|  
 |------------------7--------|   |-------------|  
 |-------------7h9----9p7----|   |--7h9--------|  
 |--9-9-9-9-9-------------9--|   |------7h9--9-| 
 |--7-7-7-7-7----------------|   |-------------|  
 |--7-7-7-7-7----------------|   |-------------|

this part played 3 times...

then...
 |-------------|-------------|
 |-------8p7p5-|-------8p7p5-|
 |-7p5p4-------|-7p5p4-------|
 |-------------|-------------|
 |-------------|-------------|
 |-------------|-------------|
 
 |-------------|-------------|
 |-------8p6p4-|-------8p0h5-|
 |-7p4p0-------|-7p5p4-------|
 |-------------|-------------|
 |-------------|-------------|
 |-------------|-------------|

 |-------------|--------------|
 |-------8p7p5-|-------10p9p7-|
 |-7p5p4-------|-7p5p0--------|
 |-------------|--------------|
 |-------------|--------------|
 |-------------|--------------|

 |-------------|-------------|
 |-------9p8p5-|-------9p7h8-|
 |-7p6p5-------|-7p5p0-------|
 |-------------|-------------|
 |-------------|-------------|
 |-------------|-------------|

 |-15-13-11-------------------------|-------------------------------------|
 |----------15-13-11----------------|-------------------------------------|
 |-------------------14-12-10-------|-------------------------------------|
 |----------------------------13-12-|-10-10-10-10-10-10-10-10-10-10-10-10-|
 |----------------------------------|-------------------------------------|
 |----------------------------------|-------------------------------------|

 |-------------------------|-6-6-6-6-10-10-10-10-15-15-15-15-|
 |-----------------8-8-8-8-|---------------------------------|
 |---------7-7-7-7---------|---------------------------------|
 |-8-8-8-8-----------------|---------------------------------|
 |-------------------------|---------------------------------|
 |-------------------------|---------------------------------|


 |----------------------------|   
 |-----------------8--10------|
 |------------------------7---|    
 |--10-10-10-10-10------------|    
 |--10-10-10-10-10------------|
 |--8--8--8--8--8-------------|
    .  .  .  .  .

 |---------------------------|   |-------------|  
 |------------------7--------|   |-------------|  
 |-------------7h9----9p7----|   |--7h9--------|  
 |--9-9-9-9-9-------------9--|   |------7h9--9-| 
 |--7-7-7-7-7----------------|   |-------------|  
 |--7-7-7-7-7----------------|   |-------------|

 |-----------|---------------|-----------|---------------|
 |-----------|-------7p5-----|-----------|-------7p5-----|
 |-----------|-7h9p7---------|-----------|-7h9p7---------|
 |-9-9--9--9-|-----------7p5-|-9-9--9--9-|-----------7p5-|
 |-7-7--7--7-|---------------|-7-7--7--7-|---------------|
 |-----------|---------------|-----------|---------------|

 |-----------|-------------|-----------|-------------|
 |-----------|--8--10------|-----------|--8--10------|
 |-----------|----------7--|-----------|----------7--|
 |-5-5--5--5-|----------9--|-5-5--5--5-|----------9--|
 |-3-3--3--3-|-------------|-3-3--3--3-|-------------|
 |-----------|-------------|-----------|-------------|

 |-------------|-------------|
 |-------8p7p5-|-------8p7p5-|
 |-7p5p4-------|-7p5p4-------|
 |-------------|-------------|
 |-------------|-------------|
 |-------------|-------------|
 
 |-------------|-------------|
 |-------8p6p4-|-------8p0h5-|
 |-7p4p0-------|-7p5p4-------|
 |-------------|-------------|
 |-------------|-------------|
 |-------------|-------------|

 |-------------|--------------|
 |-------8p7p5-|-------10p9p7-|
 |-7p5p4-------|-7p5p0--------|
 |-------------|--------------|
 |-------------|--------------|
 |-------------|--------------|

 |-------------|-------------|
 |-------9p8p5-|-------9p7h8-|
 |-7p6p5-------|-7p5p0-------|
 |-------------|-------------|
 |-------------|-------------|
 |-------------|-------------|

 |------------|-------------|-------------|------------|
 |-8--7-------|--8--7-------|--8--7-------|-8--7-------|
 |--------7---|---------7---|---------7---|------------|
 |------------|-------------|-------------|--------9---|
 |------------|-------------|-------------|------------|
 |------------|-------------|-------------|------------|

 |---------------------------|   |-------------|  
 |------------------7--------|   |-------------|  
 |-------------7h9----9p7----|   |--7h9--------|  
 |--9-9-9-9-9-------------9--|   |------7h9--9-| 
 |--7-7-7-7-7----------------|   |-------------|  
 |--7-7-7-7-7----------------|   |-------------|

 |-----------|---------------|-----------|---------------|
 |-----------|-------7p5-----|-----------|-------7p5-----|
 |-----------|-7h9p7---------|-----------|-7h9p7---------|
 |-9-9--9--9-|-----------7p5-|-9-9--9--9-|-----------7p5-|
 |-7-7--7--7-|---------------|-7-7--7--7-|---------------|
 |-----------|---------------|-----------|---------------|

 |-----------|-------------|-----------|-------------|
 |-----------|--8--10------|-----------|--8--10------|
 |-----------|----------7--|-----------|----------7--|
 |-5-5--5--5-|----------9--|-5-5--5--5-|----------9--|
 |-3-3--3--3-|-------------|-3-3--3--3-|-------------|
 |-----------|-------------|-----------|-------------|

|-15-13-11-------------------------|-------------------------------------|
 |----------15-13-11----------------|-------------------------------------|
 |-------------------14-12-10-------|-------------------------------------|
 |----------------------------13-12-|-10-10-10-10-10-10-10-10-10-10-10-10-|
 |----------------------------------|-------------------------------------|
 |----------------------------------|-------------------------------------|

 |-------------------------|-6-6-6-6-10-10-10-10-15-15-15-15-|
 |-----------------8-8-8-8-|---------------------------------|
 |---------7-7-7-7---------|---------------------------------|
 |-8-8-8-8-----------------|---------------------------------|
 |-------------------------|---------------------------------|
 |-------------------------|---------------------------------|

 |-------------|-------------|
 |-------8p7p5-|-------8p7p5-|
 |-7p5p4-------|-7p5p4-------|
 |-------------|-------------|
 |-------------|-------------|
 |-------------|-------------|
 
 |-------------|-------------|
 |-------8p6p4-|-------8p0h5-|
 |-7p4p0-------|-7p5p4-------|
 |-------------|-------------|
 |-------------|-------------|
 |-------------|-------------|

 |-------------|--------------|
 |-------8p7p5-|-------10p9p7-|
 |-7p5p4-------|-7p5p0--------|
 |-------------|--------------|
 |-------------|--------------|
 |-------------|--------------|

 |-------------|-------------|
 |-------9p8p5-|-------9p7h8-|
 |-7p6p5-------|-7p5p0-------|
 |-------------|-------------|
 |-------------|-------------|
 |-------------|-------------|

 |-------------------------|-6-6-6-6-10-10-10-10-15-15-15-15b~-|
 |-----------------8-8-8-8-|-----------------------------------|
 |---------7-7-7-7---------|-----------------------------------|
 |-8-8-8-8-----------------|-----------------------------------|
 |-------------------------|-----------------------------------|
 |-------------------------|-----------------------------------|

end...
Tap to rate this tab
# A B C D E F G H I J K L M N O P Q R S T U V W X Y Z