Song name
# A B C D E F G H I J K L M N O P Q R S T U V W X Y Z

Misc Unsigned Bands - Empty For A Cause - My Own Free Will tab

i think it's correct..
[0:02-0:13]
|------------------------0------------------------------------------------|
|-5h6p5-----8-6-5-6--5----------------------------------------------------|
|-------7-5------------7---7-5~~------------------------------------------|
|--------------------------------------0-3-5-------0-3-5-------0-3-5--5~~-|
|--------------------------------0-3-5-------0-3-5-------0-3-5------------|
|-------------------------------------------------------------------------|

|-------------------------------------------------------|
|-------------------------------------------------------|
|-------------------------------------------------------|
|-------------------------------------------------------|
|-5h7-4h6---5h7-4h6p4--------5h7-4h6---5h7-4h6p4--------|
|---------0-----------000000---------0-----------000000-|
                      ......                     ......

|-------------------------------------------------------|
|-------------------------------------------------------|
|-------------------------------------------------------|
|-------------------------------------------------------|
|-5h7-4h6---5h7-4h6p4--------5h7-4h6---5h7-4h6p4--------|
|---------0-----------000000---------0-----------000000-|
                      ......                     ......


that's it...
Tap to rate this tab
 
# A B C D E F G H I J K L M N O P Q R S T U V W X Y Z