Song name
# A B C D E F G H I J K L M N O P Q R S T U V W X Y Z

Misc Unsigned Bands - Crashcurse - The Hands Of Fate tab

1st part:
[clean]
|---------------------------------------------------------------------------|
|---------------------------------------------------------------------------|
|---------------------------------------------------------------------------|
|---------------------------------------------------------------------------|
|-7p5---5---9---8---5---6\\---7p5--5-6-7p5---5---9---8---5---6\\---7p5--5-6-|
|-----0---0---0---0---0--------------------0---0---0---0---0----------------|

|---------------------------------------------------------------------------|
|---------------------------------------------------------------------------|
|---------------------------------------------------------------------------|
|---------------------------------------------------------------------------|
|-7p5---5---9---8---5---6\\---7p5--5-6-7p5---5---9---8---5---6\\---7p5--5-6-|
|-----0---0---0---0---0--------------------0---0---0---0---0----------------|

2nd part:
[distortion]
|-----------------------------------------------|
|-----------------------------------------------|
|-----------------------------------------------|
|------------------------------------10\7/10\9--|
|-----10p7p0-9p6p0------10p7p0-9p6p0--8\5/-8\7--|
|-0-0---------------0-0-------------------------|

-----------------------------------------------------------------------------|
-----------------------------------------------------------------------------|
------------------------------------------------------10-8-7-----------------|
-0--------------------------------------12-10-8-7h8p7------------------------|
-0-7h8p7-9-8-7-8--7h8p7-9-8-7-----7h8p7--------------------------------------|
-0-----------------------------88--------------------------------------------|
			             xx

-----------------------------------------------------------------------------|
-----------------------------------------------------------------------------|
------------------------------------------------------10-8-7-----------------|
-0--------------------------------------12-10-8-7h8p7------------------------|
-0-7h8p7-9-8-7-8--7h8p7-9-8-7-----7h8p7--------------------------------------|
-0-----------------------------88--------------------------------------------|
			             xx

-----------------------------------------------------------------------------|
-----------------------------------------------------------------------------|
------------------------------------------------------10-8-7-----------------|
-0--------------------------------------12-10-8-7h8p7------------------------|
-0-7h8p7-9-8-7-8--7h8p7-9-8-7-----7h8p7--------------------------------------|
-0-----------------------------88--------------------------------------------|

...
Tap to rate this tab
 
# A B C D E F G H I J K L M N O P Q R S T U V W X Y Z