Song name
# A B C D E F G H I J K L M N O P Q R S T U V W X Y Z

Misc Unsigned Bands - Crashcurse - Anatomy Of A Sinner tab

...

-----------------------------------------------------------------------------|
-----------------------------------------------------------------------------|
-----------------------------------------------------------------------------|
------------------7h8p7------------------------------------------------------|
-------8-7-5------------8p7-------8-7-5--------------------------------------|
-0-0-0-------0-00-----------0-0-0-------8-8-8----000-000---------------------|
 x x x       x xx           x x x       x x x    xxx xxx

-----------------------------------------------------------------------------|
-----------------------------------------------------------------------------|
-----------------------------------------------------------------------------|
------------------7h8p7------------------------------------------------------|
-------8-7-5------------8p7-------8-7-5--------------------------------------|
-0-0-0-------0-00-----------0-0-0-------8-8-8----000-000---------------------|
 x x x       x xx           x x x       x x x    xxx xxx

-----------------------------------------------------------------------------|
-----------------------------------------------------------------------------|
-----------------------------------------------------------------------------|
----------------------------------------------6-7--------6h7----6h7----------|
----7-8-7------7h8----7h8-------------------------7--------------------------|
-00------h8--00-----00----------------------00-----h8--00-----00-------------|

that's it...
hope it's correct...
Tap to rate this tab
# A B C D E F G H I J K L M N O P Q R S T U V W X Y Z