Guitaretab - guitar tabs
Song name
# A B C D E F G H I J K L M N O P Q R S T U V W X Y Z

Misc Unsigned Bands - Love Motion - Song 1 tab

Intro:
|----------------------------------------------------------------------|
|----------------------------------------------------------------------|
|----------------------------------------------------------------------|
|--------2-2------------2-2-4--------2-2-------------------------------|
|-2------0-03p0--2-----0-0-2--2-----0-03p0--4-------6-------------5p-|
|-03p0-----------03p0--------03p0----------2-2-2-2-4-4-4-4-7p5p0----|

Verse:
|------------------------------------|
|------------------------------------|
|----------5-5-4-2----------4-4-4-5--|
|----------5-5-4-2----------5-5-5-5--|
|-2-----2-----------2-----2----------|
|-0-0-0-0-----------0-0-0-0----------|

|------------------------------------|
|------------------------------------|
|----------5-5-4-2----------4-4-4-5--|
|----------5-5-4-2----------5-5-5-5--|
|-2-----2-----------2-----2----------|
|-0-0-0-0-----------0-0-0-0----------|

|------------------------------------------|
|-----------8--8-7-5------------8--9--9-10-|
|-----------9--9-8-6------------9--9--9-10-|
|-2-----2--10-10-9-7--2-----2--10-10-10-10-|
|-0-0-0-0-------------0-0-0-0--------------|
|------------------------------------------|
[ Tab from: http://www.guitaretab.com/m/misc-unsigned-bands/101470.html ]
|------------------------------------------|
|------------------------------------------|
|----------5-5-4-2-------------------------|
|----------5-5-4-2-------------------------|
|-2-----2-----------2-----4-------5p-------|
|-0-0-0-0-----------0-0-0-27p5p0----------|

Chorus:
|----------------------------------------------------------------------|
|----------------------------------------------------------------------|
|----------------------------------------------------------------------|
|--------2-2------------2-2-4--------2-2-------------------------------|
|-2------0-03p0--2-----0-0-2--2-----0-03p0--4-------6-------------5p-|
|-03p0-----------03p0--------03p0----------2-2-2-2-4-4-4-4-7p5p0----|

Bridge:
|-------------------------------------------------------|
|-------------------------------------------------------|
|-------------------------------------------------------|
|---------------5p4p0h2p0h4h5----------------5p4p0-5-5--|
|-2-----7p5--------------------2-----7p5-----------3-2--|
|-0-0-0-----0-0----------------0-0-0-----0-0------------|

|-------------------------------------------------|
|-------------------------------------------------|
|-------------------------------------------------|
|--------------5p4p0h2p0h4h5----------------------|
|-2-----7p5-------------------2-----7p5------5-5--|
|-0-0-0----0-0----------------0-0-0-----0-0--3-2--|

Solo Rythem:
|------------------------------------------------|
|------------------------------------------------|
|------------------------------------------------|
|-------------------5-5--------------------------|
|-2-----2-----2-----3-2--2-----2-----2-----5-5---|
|-0-0-0-0-0-0-0-0-0------0-0-0-0-0-0-0-0-0-3-2---|


Love Motion!
Related for Love Motion - Song 1 tab