Song name
# A B C D E F G H I J K L M N O P Q R S T U V W X Y Z

Misc Unsigned Bands - Octoozie - Piss Storm Life Form tab

Verse 1 2x
PM---|          PM-----|    PM-----|  PM-|  PM
|----------------------------------------------------|
|----------------------------------------------------|
|----------------------------------------------------|
|-2-2--2-----------------8\7---------3-----3---3---2-| 
|-2-2--2---------0-0-0-0-8\7-0-0-0-0-3-0-0-3-0-3---2-|
|-0-0--0---------0-0-0-0-6\5-0-0-0-0-1-0-0-1-0-1---0-|


Chorus 2x
|--------------------------------------------------------------------------|
|--------------------------------------------------------------------------|
|--------------------------------------------------------------------------|
|-5---------7-7----7/--------------------------------------------\10-10-10-|
|-5---------7-7----7/19-19-19-19-19-19-19-17-14-14-14-14-14-14-14\10-10-10-|
|-3---------5-5----5/17-17-17-17-17-17-17-15-12-12-12-12-12-12-12\8--8--8--|


                      Chorus End        Verse 2
|-----------------------------------------------------------------|
|-----------------------------------------------------------------|
|-----------------------------------------------------------------|
|-10-10-10-10\-5-5-7-5-5-7-5-5-7--------0-0-0-1-0-0-3-0-0-5-0-5/7-|
|-10-10-10-10\-5-5-7-5-5-7-5-5-7----------------------------------|
|-8--8--8--8 \-3-3-5-3-3-5-3-3-5----------------------------------|



|---------------------------------------------------------|
|---------------------------------------------------------|
|---------------------------------------------------------|
|-0-0-0-0-1-0-0-3-0-0-5-0-5/7-0-0-0-0-1-0-0-3-0-0-5-0-5/7-|
|---------------------------------------------------------|
|---------------------------------------------------------|



|------------------------------------------------|
|------------------------------------------------|
|-----------------------------------------7------|
|-0-0-0-0-2-0-3-0-0-0-0-4-0-5-0-0-0-0-6-0-7------| 
|------------------------------------------------|
|------------------------------------------------|


CHORUS 1x

VERSE 1 2x
On second time playing verse 1 let last chord ring.



Tap to rate this tab
 
# A B C D E F G H I J K L M N O P Q R S T U V W X Y Z