Song name
# A B C D E F G H I J K L M N O P Q R S T U V W X Y Z

Misc Unsigned Bands - Clearwater Collision - Name To Come Soon tab

Start of with a Palm Muted intro in Drop D

|----------------------------------------|
|----------------------------------------|
|-----2-----5-----7-----9----12-12-12-12-|
|-----2-----5-----7-----9----12-12-12-12-| X3
|-----2-----5-----7-----9----12-12-12-12-|
|-0-0-0-0-0-0-0-0-0-0-0-0-0-0-0-0-0-0-0--|

|--------------------------------------------|
|--------------------------------------------|
|-10-10-12-7-7-9-5-5-7-3-3-5-2-2-3-2-2-3-2-3-|
|-10-10-12-7-7-9-5-5-7-3-3-5-2-2-3-2-2-3-2-3-| X2
|-10-10-12-7-7-9-5-5-7-3-3-5-2-2-3-2-2-3-2-3-|
|-0--0--0--0-0-0-0-0-0-0-0-0-0-0-0-0-0-0-0-0-|

something like that....


Tap to rate this tab
# A B C D E F G H I J K L M N O P Q R S T U V W X Y Z