Song name
# A B C D E F G H I J K L M N O P Q R S T U V W X Y Z

Misc Unsigned Bands - Violent Kiss - Act Of Submission tab

ViolentKiss
Act of Submission Tab...


intro:
e|-----------8-7---8-7---8-7---8-7---8-7----| 
B|--8--7---------8-----8-----8-----8-----8--| 
G|--------9---------------------------------|
D|------------------------------------------| 
A|------------------------------------------| 
D|--0--0--0---------------------------------| 

e|-----------8-7---8-7---8-7---8-7---8-7----| 
B|--8--7---------8-----8-----8-----8-----8--| 
G|--------9---------------------------------| 
D|------------------------------------------| 
A|------------------------------------------| 
D|--0--0--0---------------------------------| 

then:
e|------------------------------|
B|------------------------------|
G|---9---9---9-10-9--9----------|
D|-7-9-7-9-7-9-10-7--9----------|
A|-7-7-7-7-7-7-8-----7----------|
D|-7---7---7--------------------|


e|---------------------------|---------------------------------------|
B|------5~----5~----6~---5---|---5--5--5--5--5---6--6--5--5----------|
G|----5-----5-----5----5--5--|----5--5--5--5------5--5--55-55--------|
D|--7-----7-----8----8-------|-7~--7--7--7--7--8~--8--8-------7~-----|
A|---------------------------|---------------------------------------|
D|---------------------------|---------------------------------------|

e|------------------------------|
B|------------------------------|
G|---9---9---9-10-9--9----------|
D|-7-9-7-9-7-9-10-7--9----------|
A|-7-7-7-7-7-7-8-----7----------|
D|-7---7---7--------------------|

e|-------------------------------|
B|-------------------------------|
G|--99-99-9/101010-12------------|
D|--xx-xx-x/x-x-x--x-------------|
A|--77-77-7/8-8-8--10------------|
D|-------------------------------|

then:
e|---------------------------|---------------------------------------|
B|------5~----5~----6~---5---|---5--5--5--5--5---6--6--5--5----------|
G|----5-----5-----5----5--5--|----5--5--5--5------5--5--55-55--------|
D|--7-----7-----8----8-------|-7~--7--7--7--7--8~--8--8-------7~-----|
A|---------------------------|---------------------------------------|
D|---------------------------|---------------------------------------|


outro:
e|-----------8-7---8-7---8-7---8-7---8-7----| 
B|--8--7---------8-----8-----8-----8-----8--| 
G|--------9---------------------------------|
D|------------------------------------------| 
A|------------------------------------------| 
D|--0--0--0---------------------------------| 

e|-----------8-7---8-7---8-7---8-7---8-7----| 
B|--8--7---------8-----8-----8-----8-----8--| 
G|--------9---------------------------------| 
D|------------------------------------------| 
A|------------------------------------------| 
D|--0--0--0---------------------------------| 

taht's all...
Tap to rate this tab
# A B C D E F G H I J K L M N O P Q R S T U V W X Y Z