Song name
# A B C D E F G H I J K L M N O P Q R S T U V W X Y Z

Misc Unsigned Bands - Icarus - Your Lullaby tab

Intro/Inter -

   A                E               D                    D

e|-------------------------------------------------------------------------|
B|-------------------------------------------------------------------------|
G|-6----9-6---------6----9-6---------6----9-6------------------------------|
D|-------------9----------------9----------------9---7---7-----------------|
A|-------------------------------------------------------------------------|
E|-------------------------------------------------------------------------|

         A                 E                D                  D
e|-------------------------------------------------------------------------|
B|-------------------------------------------------------------------------|
G|--------6----9-6---------6----9-6---------6----9-6-----------------------|
D|-7-9----------------9----------------9----------------9---7----7-7-6--7--|
A|-------------------------------------------------------------------------|
E|-------------------------------------------------------------------------|


               ^
Rhythem punch  | = direction of the stroke

e|--^-----^--^-|-^-|-^---^-|-^-|-|
B|--|-----|--|-|-|-|-|---|-|-|-|-|
G|--|-----|--|-v-|-v-|---|-v-|-v-|
D|--|-----|----------------------|
A|--|-----|----------------------|
E|--|----------------------------|


All the chords are played like this.....

Other lead guitar part also goes in the same scale and same positions. so i think you 
can get it very easily.This is all you want to know to play this awesome song.
Tap to rate this tab
 
# A B C D E F G H I J K L M N O P Q R S T U V W X Y Z