Song name
# A B C D E F G H I J K L M N O P Q R S T U V W X Y Z

Misc Unsigned Bands - Trauma Inmotion - Dream Girl tab

-------------------------------------------------------------------------------
			     Dream Girl(the cheap version-draft) - Trauma In Motion
-------------------------------------------------------------------------------
Tabbed by:beachboy1992(Richard Artola)
Email:mindlessofadown@yahoo.com

Tuning:eadgbe

Intro:

Am

e|----------0------------------0---------------------------------------------------|
B|-------1-----1------------1----1-------------------------------------------------|
G|----2----------2------2----------2-----------------------------------------------|
D|--2---------------2-----------------2--------------------------------------------|
A|---------------------------------------------------------------------------------|
E|---------------------------------------------------------------------------------|

C

e|-------0----------------0--------------------------------------------------------|
B|-----1---1-----------1----1------------------------------------------------------|
G|--0---------0-----0----------0---------------------------------------------------|
D|2--------------2----------------2------------------------------------------------|
A|---------------------------------------------------------------------------------|
E|---------------------------------------------------------------------------------|

Em

e|---------0-----------------0-----------------------------------------------------|
B|------0-----0-----------0----0---------------------------------------------------|
G|---0-----------0-----0---------0-------------------------------------------------|
D|-2----------------2---------------2----------------------------------------------|
A|---------------------------------------------------------------------------------|
E|---------------------------------------------------------------------------------|

G

e|---------0---------------------------------------------------------------------|
B|------0----0-------------------------------------------------------------------|
G|---0----------0----------------------------------------------------------------|
D|-0---------------0-------------------------------------------------------------|
A|-------------------------------------------------------------------------------|
E|-------------------------------------------------------------------------------|

Verse
C                                                 Em

e|-0----------0--------------0---0-------------------------------------------------|
B|-1-------1----0------------0------0----------------------------------------------|
G|-0----0-------------------0--------0---------------------------------------------|
D|-2--2---------------------0----------0-------------------------------------------|
A|-3-------------------------2-------------0---------------------------------------|
E|-o-------------------------0-----------------------------------------------------|
Tap to rate this tab
# A B C D E F G H I J K L M N O P Q R S T U V W X Y Z