Song name
# A B C D E F G H I J K L M N O P Q R S T U V W X Y Z

Misc Unsigned Bands - Darkness Dynamite - Save The Cheerleader tab

------------------------------------------------------------------------------
Save The Cheerleader-Darkness Dynamite 
------------------------------------------------------------------------------
Tabbed by : Igal
Email : Igalboy@gmail.com

e|----------------------------------------------------------------------------|
b|----------------------------------------------------------------------------|
g|----------------------------------------------------------------------------|
d|----------------------------------------------------------------------------|
a|-000-000--4h7--5h8--000-000--4h7--5h8--000-000--4h7--6h9--000-000--4h7--6h9-|
D|-000-000------------000-000------------000-000------------000-000-----------|

e|----------------------------------------------|
b|----------------------------------------------|
g|----------/11h9--8--9--11h9--8--9h7-----------|
d|-0-0-0-0-----------------------------0-0-0-0--|
a|-0-0-0-0-----------------------------0-0-0-0--|
D|-0-0-0-0-----------------------------0-0-0-0--|


| /  slide up
| \  slide down
| h  hammer-on
| p  pull-off
| ~  vibrato
| +  harmonic
| x  Mute note
===============================================================================
Tap to rate this tab
# A B C D E F G H I J K L M N O P Q R S T U V W X Y Z