Guitaretab - guitar tabs
Song name
# A B C D E F G H I J K L M N O P Q R S T U V W X Y Z

Misc Unsigned Bands - Dignan - The Guest tab

   Intro (x4)
e|-------------------------------------------------------------------------|
b|-------------------------------------------------------------------------|
g|-------0-------0---------0-------0---------------------------------0-----|
d|-----5-------4---------9-------7-----------0--------0--------5---4-------|
a|---7----7\-5-----5/-10---10\-9-----9-----7--------5--------3-----------3-|
e|---------------------------------------8-----8\-7-----7\-5-----5-----5---|


   Brass Part
e|-------------------------------------------------------------------------|
b|-------------------------------------------------------------------------|
g|-------------------------------------------------------------------------|
d|-------------------------------------------------------------------------|
a|-------7/14--15-14\9-10\7/14\9---9h10\7----------------------------------|
e|-------------------------------------------------------------------------|

   Harmony  (use same picking and sliding techniques)
e|-------------------------------------------------------------------------|
b|-------------------------------------------------------------------------|
g|-------------------------------------------------------------------------|
d|---5---12---14---12---7---9---5---12---7---9---5-------------------------|
a|-------------------------------------------------------------------------|
e|-------------------------------------------------------------------------|

   Verses   (Bass
[ Tab from: http://www.guitaretab.com/m/misc-unsigned-bands/101789.html ]
G|-------------------------------------------------------------------------|
D|-------------------------------------------------------------------------|
A|---7----5----------------------------------------------------------------|
E|-------------3----5----8----7----5---------------------------------------|
B|-------------------------------------------------------------------------|

   Chorus     (the first 3 chords are played alot. The second set is played at the end 
the chorus)
e|-------------------------------------------------------------------------|
b|-------------------------------------------------------------------------|
g|-----5----7----2------------------5----7----9----------------------------|
d|-----5----7----2------------------5----7----9----------------------------|
a|-----3----5----0------------------3----5----7----------------------------|
e|-----3----5-----------------------3----5----7----------------------------|


   Riff In Chorus
e|-------------------------------------------------------------------------|
b|-------------------------------------------------------------------------|
g|-------------------------------------------------------------------------|
d|------9br----5/7---------------------------------------------------------|
a|------------------7------------------------------------------------------|
e|-------------------------------------------------------------------------|

   Riff At The End
e|-------------------------------------------------------------------------|
b|-------------------------------------------------------------------------|
g|---14----12----11---12----14----16---------------------------------------|
d|-------------------------------------------------------------------------|
a|---12----10----9----10----12----14---------------------------------------|
e|-------------------------------------------------------------------------|

     Key
      / = Slide up
      \ = Slide down
     br = Bend and return

This is my first tab. Questions and/or comments are welcome. Email me at Deerslayer905@aol.com
Related for Dignan - The Guest tab
Advertisement will be closed in 10 seconds