Song name
# A B C D E F G H I J K L M N O P Q R S T U V W X Y Z

Misc Unsigned Bands - Dawn Marker - Punk tab

===///DAWN MARKET- PUNK\\\===
Composed by Maro
Arranged by Ginjineko on Youtube ---> http://fr.youtube.com/watch?v=STMHxPFKpng
Tabbed by thedarkflowkiller

Standard Tunning

b(12) :bend
h       :hammer
p       :Pull Off
/ , \   : Slide


E||-----------|-------------|-7-9-10-9-7----|---------------------|
B||--------7--|---7-8--8/10-|------------10-|-8p7h8-10-10/12-10---|
G||----7-9----|-7-----------|---------------|---------------------|
D||-/7--------|-------------|---------------|---------------------|
A||-----------|-------------|---------------|---------------------|
E||-----------|-------------|---------------|---------------------|

|-------------------|-----------|-------------|-7-9-10-9-10/12-|
|-8-7-5-3-5b(7)5----|--------7--|---7-8-8/10--|----------------|
|-------------------|----7-9----|-7-----------|----------------|
|-------------------|-/7--------|-------------|----------------|
|-------------------|-----------|-------------|----------------|
|-------------------|-----------|-------------|----------------|

|-12/14--------|----------------|-9-10---10-9h10----|
|-------14-\10-|-10/12-14-15-10|------8-------------|
|--------------|----------------|-------------------|
|--------------|----------------|-------------------|
|--------------|----------------|-------------------|
|--------------|----------------|-------------------|

|10p9-7-9-10/12--|----------7-9-10-|-10-9-7-9-10/12-12/14-----------|
|--------------10-|-8p7h8-10-------|-----------------------14-------|
|-----------------|-----------------|--------------------------14---|
|-----------------|-----------------|-------------------------------|
|-----------------|-----------------|-------------------------------|
|-----------------|-----------------|-------------------------------|


|-12/15-14-12----|----------------|
|-------------15-|-15b(17)--------|end of the intro
|----------------|----------------|
|----------------|----------------|
|----------------|----------------|
|----------------|----------------|

J-flow_killer@hotmail.fr        for any comments !
Cheers
Rate please !
Tap to rate this tab
# A B C D E F G H I J K L M N O P Q R S T U V W X Y Z