Song name
# A B C D E F G H I J K L M N O P Q R S T U V W X Y Z

Misc Unsigned Bands - The Country - Alex Wisda tab

-------------------------------------------------------------------------------
			     The Country - Alex Wisda
Tabbed by:countryboy44
Email:wisdaal@cadet.com

Tuning:

e|---------0/0--0---------------------0/0--0-----------------------------------|
B|---------3/5--5---------------------3/5--5-----------------------------------|
G|-----------------------------------------------------------------------------|
D|------------------ 5-----7--------------------5-----7------------------------|
A|-------------------5-----7--------------------5-----7------------------------|
E|--0--0------------ 3-----5----0--0------------3-----5--------0--0------------|

e|--0/0-------0----------------------------0/0--0----0-------------------------|
B|--3/5-------5----------------------------3/5--8----5-------------------------|
G|-----------------------------------------------------------------------------|
D|------------------5----7-----------------------------------------------------|
A|------------------5----7-----------------------------------------------------|
E|------------------3----5---------0--0----------------------------------------|
|
Over the bridge where the highway ends theres a old dirt road that goes on for miles its better
than the
city ain't no one around
		B7
	Its called the country

every Friday night when the time is right trucks line up on 49 got a six pack of beer
a bottle of jack
 Copenhagen and a 44 mag.
		B7
	Its called the country

Got a pick up truck sittin up high cowboy boots and a pair of jeans got a pretty little girl
sittin next to
me were blastin Hank jr. and Johnny Cash
		B7
	its called the country
 /  slide up
| \  slide down
| h  hammer-on
| p  pull-off
| ~  vibrato
| +  harmonic
| x  Mute note
===============================================================================
Tap to rate this tab
# A B C D E F G H I J K L M N O P Q R S T U V W X Y Z