Song name
# A B C D E F G H I J K L M N O P Q R S T U V W X Y Z

Misc Unsigned Bands - My Last Regret - Dead Kitty tab

Help us improve GuitareTab! Take a short survey!
-------------------------------------------------------------------------------
			     DEAD KITTY - My Last Regret
-------------------------------------------------------------------------------
Tabbed by:robertrocker
Email:

Tuning: Standard

Okay, the song starts off with a slow acoustic solo.

e|-----------------------------------------------------------------------------|
B|-----------------------------------------------------------------------------|
G|-----------------------------------------------------------------------------|
D|-----------------------------------------------------------------------------|
A|--------------------3-2------------------------------------------------------|
E|3-2-0--3-2-0--3-2-0-------3-2-0--3-2-0--3-2-0--3-5----x2---------------------|

These chords go on while lead singer tells about the DEAD KITTY.

"A warrior once dominated the land. Dead bodies, severed hands."
"A roar would come from his piano sized jaw, as fire shot out from his mighty paw"
"None could win with him in a fight, until Chuck Norris came with all his might".
"The kitty was dominated, all was well, until the devil realized DEAD KITTY was too bad for hell."
"So DEAD KITTY will relase his wrath, and the world will be in his blood bath.

e|---------------------------------------------------------------------------|
B|---------------------------------------------------------------------------|
G|---------------------------------------------------------------------------|
D|0-2-2-2-2-2-2-2-0-0-0-0-0-0-0-0-3-3-3-3-3-3-3-3-2-2-2-2-2-2-2-2------------|
A|2-2-2-2-2-2-2-2-0-0-0-0-0-0-0-0-0-0-0-0-0-0-0-0-2-2-2-2-2-2-2-2----x5------|
E|0-0-0-0-0-0-0-0-0-0-0-0-0-0-0-0-0-0-0-0-0-0-0-0-0-0-0-0-0-0-0-0------------|


Ok, we will skip ahead to the solo. This is where the guitarist, panic, will battle DEAD
in a guitar battle.

                                    let last 2 notesring
e|12-10----------10--------------10-12---12----------------------------------|
B|------12-10-12---12-10-12-10-12--------------------------------------------|
G|---------------------------------------------------------------------------|
D|---------------------------------------------------------------------------|
A|---------------------------------------------------------------------------|
E|---------------------------------------------------------------------------|

e|12-10----------10--------------------------------------------------------------|
B|------12-10-12---12-10-12-10-12------------------------------------------------|
G|--------------------------------12---12-both partsx2---------------------------|
D|-------------------------------------------------------------------------------|
A|-------------------------------------------------------------------------------|
E|-------------------------------------------------------------------------------|

e|------10---------10---------10---------12----x2----------------------------|
B|10-12------10-12------10-12------10-12-------------------------------------|
G|---------------------------------------------------------------------------|
D|---------------------------------------------------------------------------|
A|---------------------------------------------------------------------------|
E|---------------------------------------------------------------------------|

e|14-13-11---13-11-9---11-8-7-8--x4------------------------------------------|
B|---------------------------------------------------------------------------|
G|---------------------------------------------------------------------------|
D|---------------------------------------------------------------------------|
A|---------------------------------------------------------------------------|
E|---------------------------------------------------------------------------|
                                    let last 2 notesring
e|12-10----------10--------------10-14---14----------------------------------|
B|------12-10-12---12-10-12-10-12--------------------------------------------|
G|---------------------------------------------------------------------------|
D|---------------------------------------------------------------------------|
A|---------------------------------------------------------------------------|
E|---------------------------------------------------------------------------|

e|12-10----------10--------------------------------------------------------------|
B|------12-10-12---12-10-12-10-12------------------------------------------------|
G|--------------------------------12---12-both partsx2---------------------------|
D|-------------------------------------------------------------------------------|
A|-------------------------------------------------------------------------------|
E|-------------------------------------------------------------------------------|
                               let ring(optionol:slide from 1-16)
e|------12-------13-------14---16--------------------------------------------|
B|12-14----13-15----14-16----------------------------------------------------|
G|---------------------------------------------------------------------------|
D|---------------------------------------------------------------------------|
A|---------------------------------------------------------------------------|
E|---------------------------------------------------------------------------|
                              let last note ring
e|12-10----------10----------------------------------------------------------|
B|------12-10-12----12-10----------------------------------------------------|
G|------------------------12-------------------------------------------------|
D|---------------------------------------------------------------------------|
A|---------------------------------------------------------------------------|
E|---------------------------------------------------------------------------|


Same as earlier, but with diffrent lyrics

"That weakling of a kitty, couldn't stand our rock. So he was banished to his litter box."
"Now dead kitty is gone. And the world will continue to carry on."
"They will remember. The ones who went enough far."
"To battle an overlord, with just a guitar."


e|-----------------------------------------------------------------------------|
B|-----------------------------------------------------------------------------|
G|-----------------------------------------------------------------------------|
D|0-2-2-2-2-2-2-2-0-0-0-0-0-0-0-0-3-3-3-3-3-3-3-3-3-3-3-3-3-3-3-3--------------|
A|2-2-2-2-2-2-2-2-0-0-0-0-0-0-0-0-0-0-0-0-0-0-0-0-2-2-2-2-2-2-2-2----x5--------|
E|0-0-0-0-0-0-0-0-0-0-0-0-0-0-0-0-0-0-0-0-0-0-0-0-0-0-0-0-0-0-0-0--------------|

                            let last note ring
e|12-10----------10----------------------------------------------------------|
B|------12-10-12----12-10----------------------------------------------------|
G|------------------------12-------------------------------------------------|
D|---------------------------------------------------------------------------|
A|---------------------------------------------------------------------------|
E|---------------------------------------------------------------------------|
Related for My Last Regret - Dead Kitty tab