Song name
# A B C D E F G H I J K L M N O P Q R S T U V W X Y Z

Misc Unsigned Bands - Brandon Barbour - Dannys Song tab

Hey everyoone    i wrote this song for my girlfriend dann because well i love her so 
  i hope you enjoy it

h=hammer on
p=pull off
H=hold note

INTRO
e------------------------------------------------|
B-------2-------2h3-2-------2-------2h3-2-0-2----|
G-----2-------2-----------2-------2-----------2--|
D---2-------2-----------2-------2----------------|
A-0-------0-----------0-------0------------------|
E -----------------------------------------------|

e------------------------------------------------|
B-----2-----2-0-----2-----2-0-2------------------|
G-----2-----2-0-----2-----2-0-2------------------|
D---2-----2-------2-----2-------2H---------------|
A-0-----0-------0-----0---------0-0-0-0-0-0-0-0-0|
E------------------------------------------------|

verse riff 1

e-----------------------------------------|
B-----------------------------------------|
G-----------------------------------------|
D---2-2-2--2--3-3-3--3--0-0-0--0--0-0-0--0|
A-0--0-0-0--0--0-0-0--2--2-2-2--3--3-3-3--|
E-----------------------------------------|

e-----------------------------------------|
B-----------------------------------------|
G-----------------------------------------|
D---2-2-2--2--3-3-3--3--0-0-0--0--0-0-0--0|
A-00-0-0-00-00-0-0-00-22-2-2-22-33-3-3-33-|
E-----------------------------------------|

e-----------------------------------------|
B-----------------------------------------|
G-----------------------------------------|
D---2-2-2--2--2-2-2--2--3-3-3--3--2-2-2--2|
A-00-0-0-00-33-3-3-33-33-3-3-33-22-2-2-22-|
E-----------------------------------------|

Chorus

e-------------------------------------|
B-------------------------------------|
G-2--2-2-x----------------------------|
D-2--2-2-x-5---5-x-x-3--3-3-x-2-2-3-5-|
A-0--0-0-x-5---5-x-x-3--3-3-x-2-2-3-5-|
E----------3---3-x-x-1--1-1-x-0-0-1-3-|

e-------------------------------------|
B-------------------------------------|
G-2--2-2-x----------------------------|
D-2--2-2-x-5---5-x-x-3--3-3-x-2-2-3-5-|
A-0--0-0-x-5---5-x-x-3--3-3-x-2-2-3-5-|
E----------3---3-x-x-1--1-1-x-0-0-1-3-|

e-------------------------------------|
B-------------------------------------|
G-2--2-2-x----------------------------|
D-2--2-2-x-5---5-x-x-3--3-3-x-2-2-3-5-|
A-0--0-0-x-5---5-x-x-3--3-3-x-2-2-3-5-|
E----------3---3-x-x-1--1-1-x-0-0-1-3-|

verse riff 2 (verse 2)

e----------------------------------|
B----------------------------------|
G---2-2-2---2-2-2---0-0-0---0-0-0--|
D--2-2-2-2-3-3-3-3-0-0-0-0-0-0-0-0-|
A-0-------0-------2-------3--------|
E----------------------------------|


e----------------------------------|
B----------------------------------|
G---2-2-2---2-2-2---0-0-0---0-0-0--|
D--2-2-2-2-3-3-3-3-0-0-0-0-0-0-0-0-|
A-0-------0-------2-------3--------|
E----------------------------------|


e----------------------------------|
B----------------------------------|
G---2-2-2---2-2-2---2-2-2---2-2-2--|
D--2-2-2-2-2-2-2-2-3-3-3-3-2-2-2-2-|
A-0-------3-------3-------2--------|
E----------------------------------|

verse riff 1 (part 2)

e-----------------------------------------|
B-----------------------------------------|
G-----------------------------------------|
D---2-2-2--2--3-3-3--3--0-0-0--0--0-0-0--0|
A-0--0-0-0--0--0-0-0--2--2-2-2--3--3-3-3--|
E-----------------------------------------|

e-----------------------------------------|
B-----------------------------------------|
G-----------------------------------------|
D---2-2-2--2--3-3-3--3--0-0-0--0--0-0-0--0|
A-00-0-0-00-00-0-0-00-22-2-2-22-33-3-3-33-|
E-----------------------------------------|

e-----------------------------------------|
B-----------------------------------------|
G-----------------------------------------|
D---2-2-2--2--2-2-2--2--3-3-3--3--2-2-2--2|
A-00-0-0-00-33-3-3-33-33-3-3-33-22-2-2-22-|
E-----------------------------------------|


Chorus 2

e-------------------------------------|
B-------------------------------------|
G-2--2-2-x----------------------------|
D-2--2-2-x-5---5-x-x-3--3-3-x-2-2-3-5-|
A-0--0-0-x-5---5-x-x-3--3-3-x-2-2-3-5-|
E----------3---3-x-x-1--1-1-x-0-0-1-3-|

e-------------------------------------|
B-------------------------------------|
G-2--2-2-x----------------------------|
D-2--2-2-x-5---5-x-x-3--3-3-x-2-2-3-5-|
A-0--0-0-x-5---5-x-x-3--3-3-x-2-2-3-5-|
E----------3---3-x-x-1--1-1-x-0-0-1-3-|

e-------------------------------------|
B-------------------------------------|
G-2--2-2-x----------------------------|
D-2--2-2-x-5---5-x-x-3--3-3-x-2-2-3-5-|
A-0--0-0-x-5---5-x-x-3--3-3-x-2-2-3-5-|
E----------3---3-x-x-1--1-1-x-0-0-1-3-|

Verse Riff 3 (verse 3)

e-----------------------------------|
B--------------------2---2---3---3--|
G---2---2---2---2---2-2-2-2-2-2-2-2-|
D--2-2-2-2-2-2-2-2-0---0---0---0----|
A-0---0---3---3---------------------|
E-----------------------------------|

e-----------------------------------|
B--------------------2---2---3---3--|
G---2---2---2---2---2-2-2-2-2-2-2-2-|
D--2-2-2-2-2-2-2-2-0---0---0---0----|
A-0---0---3---3---------------------|
E-----------------------------------|

verse riff 1 (verse 3)

e-----------------------------------------|
B-----------------------------------------|
G-----------------------------------------|
D---2-2-2--2--3-3-3--3--0-0-0--0--0-0-0--0|
A-0--0-0-0--0--0-0-0--2--2-2-2--3--3-3-3--|
E-----------------------------------------|

e-----------------------------------------|
B-----------------------------------------|
G-----------------------------------------|
D---2-2-2--2--3-3-3--3--0-0-0--0--0-0-0--0|
A-00-0-0-00-00-0-0-00-22-2-2-22-33-3-3-33-|
E-----------------------------------------|

e-----------------------------------------|
B-----------------------------------------|
G-----------------------------------------|
D---2-2-2--2--2-2-2--2--3-3-3--3--2-2-2--2|
A-00-0-0-00-33-3-3-33-33-3-3-33-22-2-2-22-|
E-----------------------------------------|


Chorus 3

e-------------------------------------|
B-------------------------------------|
G-2--2-2-x----------------------------|
D-2--2-2-x-5---5-x-x-3--3-3-x-2-2-3-5-|
A-0--0-0-x-5---5-x-x-3--3-3-x-2-2-3-5-|
E----------3---3-x-x-1--1-1-x-0-0-1-3-|

e-------------------------------------|
B-------------------------------------|
G-2--2-2-x----------------------------|
D-2--2-2-x-5---5-x-x-3--3-3-x-2-2-3-5-|
A-0--0-0-x-5---5-x-x-3--3-3-x-2-2-3-5-|
E----------3---3-x-x-1--1-1-x-0-0-1-3-|

e-------------------------------------|
B-------------------------------------|
G-2--2-2-x----------------------------|
D-2--2-2-x-5---5-x-x-3--3-3-x-2-2-3-5-|
A-0--0-0-x-5---5-x-x-3--3-3-x-2-2-3-5-|
E----------3---3-x-x-1--1-1-x-0-0-1-3-|

verse riff 1 (extended verse)

e-----------------------------------------|
B-----------------------------------------|
G-----------------------------------------|
D---2-2-2--2--3-3-3--3--0-0-0--0--0-0-0--0|
A-0--0-0-0--0--0-0-0--2--2-2-2--3--3-3-3--|
E-----------------------------------------|

e-----------------------------------------|
B-----------------------------------------|
G-----------------------------------------|
D---2-2-2--2--3-3-3--3--0-0-0--0--0-0-0--0|
A-00-0-0-00-00-0-0-00-22-2-2-22-33-3-3-33-|
E-----------------------------------------|

e-----------------------------------------|
B-----------------------------------------|
G-----------------------------------------|
D---2-2-2--2--2-2-2--2--3-3-3--3--2-2-2--2|
A-00-0-0-00-33-3-3-33-33-3-3-33-22-2-2-22-|
E-----------------------------------------|

verse riff 2 (extended verse)

e----------------------------------|
B----------------------------------|
G---2-2-2---2-2-2---0-0-0---0-0-0--|
D--2-2-2-2-3-3-3-3-0-0-0-0-0-0-0-0-|
A-0-------0-------2-------3--------|
E----------------------------------|


e----------------------------------|
B----------------------------------|
G---2-2-2---2-2-2---0-0-0---0-0-0--|
D--2-2-2-2-3-3-3-3-0-0-0-0-0-0-0-0-|
A-0-------0-------2-------3--------|
E----------------------------------|


e----------------------------------|
B----------------------------------|
G---2-2-2---2-2-2---2-2-2---2-2-2--|
D--2-2-2-2-2-2-2-2-3-3-3-3-2-2-2-2-|
A-0-------3-------3-------2--------|
E----------------------------------|

Verse Riff 3 (extended verse)

e-----------------------------------|
B--------------------2---2---3---3--|
G---2---2---2---2---2-2-2-2-2-2-2-2-|
D--2-2-2-2-2-2-2-2-0---0---0---0----|
A-0---0---3---3---------------------|
E-----------------------------------|

e-----------------------------------|
B--------------------2---2---3---3--|
G---2---2---2---2---2-2-2-2-2-2-2-2-|
D--2-2-2-2-2-2-2-2-0---0---0---0----|
A-0---0---3---3---------------------|
E-----------------------------------|

verse riff 1 (extended verse)

e-----------------------------------------|
B-----------------------------------------|
G-----------------------------------------|
D---2-2-2--2--3-3-3--3--0-0-0--0--0-0-0--0|
A-0--0-0-0--0--0-0-0--2--2-2-2--3--3-3-3--|
E-----------------------------------------|

e-----------------------------------------|
B-----------------------------------------|
G-----------------------------------------|
D---2-2-2--2--3-3-3--3--0-0-0--0--0-0-0--0|
A-00-0-0-00-00-0-0-00-22-2-2-22-33-3-3-33-|
E-----------------------------------------|

e-----------------------------------------|
B-----------------------------------------|
G-----------------------------------------|
D---2-2-2--2--2-2-2--2--3-3-3--3--2-2-2--2|
A-00-0-0-00-33-3-3-33-33-3-3-33-22-2-2-22-|
E-----------------------------------------|

verse riff 2 (extended verse)

e----------------------------------|
B----------------------------------|
G---2-2-2---2-2-2---0-0-0---0-0-0--|
D--2-2-2-2-3-3-3-3-0-0-0-0-0-0-0-0-|
A-0-------0-------2-------3--------|
E----------------------------------|


e----------------------------------|
B----------------------------------|
G---2-2-2---2-2-2---0-0-0---0-0-0--|
D--2-2-2-2-3-3-3-3-0-0-0-0-0-0-0-0-|
A-0-------0-------2-------3--------|
E----------------------------------|


e----------------------------------|
B----------------------------------|
G---2-2-2---2-2-2---2-2-2---2-2-2--|
D--2-2-2-2-2-2-2-2-3-3-3-3-2-2-2-2-|
A-0-------3-------3-------2--------|
E----------------------------------|

Verse Riff 3 (extended verse)

e-----------------------------------|
B--------------------2---2---3---3--|
G---2---2---2---2---2-2-2-2-2-2-2-2-|
D--2-2-2-2-2-2-2-2-0---0---0---0----|
A-0---0---3---3---------------------|
E-----------------------------------|

e-----------------------------------|
B--------------------2---2---3---3--|
G---2---2---2---2---2-2-2-2-2-2-2-2-|
D--2-2-2-2-2-2-2-2-0---0---0---0----|
A-0---0---3---3---------------------|
E-----------------------------------|
Tap to rate this tab
# A B C D E F G H I J K L M N O P Q R S T U V W X Y Z