Song name
# A B C D E F G H I J K L M N O P Q R S T U V W X Y Z

Misc Unsigned Bands - Violentkiss - Hydrogen Peroxide tab

standard tuning...
intro:
 |----------17p14--16p14------19p14------17p14--16p14-----------|
 |--14--14----------------14---------14---------------15--14----|
 |--------------------------------------------------------------|
 |--------------------------------------------------------------|
 |--------------------------------------------------------------|
 |--------------------------------------------------------------|

do that twice...

then:
 |-------------------------------|
 |-------------------------------|
 |--13---6---11---6---9-9-9-9----|
 |--x----x---x----x---x-x-x-x----|
 |--11---4---9----4---7-7-7-7----|
 |-------------------------------|

 |--------------------------|
 |-------------5----5--5----|
 |--6-----2----6----6--6----|
 |--6--2--2----6----6--6----|
 |--4--2--0----4----x--0----|
 |-----0------------6-------|

guitar 2 comes in at 0:57 with:
 |----------17p14--16p14------19p14------17p14--16p14-----------|
 |--14--14----------------14---------14---------------15--14----|
 |--------------------------------------------------------------|
 |--------------------------------------------------------------|
 |--------------------------------------------------------------|
 |--------------------------------------------------------------|

 |----------17p14--16p14------19p14------17p14--16p14-----------|
 |--14--14----------------14---------14---------------15--14----|
 |--------------------------------------------------------------|
 |--------------------------------------------------------------|
 |--------------------------------------------------------------|
 |--------------------------------------------------------------|

then verse:
Guitar 1:
 |-----------------------------------------------------------|
 |-----------------------------------------------------------|
 |-----------------------------------------------------------|
 |--4-4-4-4-4-4-4-4----8-8-8-8-8-8-8-8----4-4-4-4-4-4-4-4----|
 |--4-4-4-4-4-4-4-4----8-8-8-8-8-8-8-8----4-4-4-4-4-4-4-4----|
 |--2-2-2-2-2-2-2-2----6-6-6-6-6-6-6-6----2-2-2-2-2-2-2-2----|

Guitar 2:
 |------------------------------------------------------------------|
 |--11---------------11--10-----------------------------------------|
 |-----10------10-----------10----------------------10--8h10--8~----|
 |--------12~-----12-----------12--10--10h12~----8------------------|
 |------------------------------------------------------------------|
 |------------------------------------------------------------------|

 |------------------------------------------------------------------|
 |--11---------------11--10-----------------------------------------|
 |-----10------10-----------10----------------------10--8h10--8~----|
 |--------12~-----12-----------12--10--10h12~----8------------------|
 |------------------------------------------------------------------|
 |------------------------------------------------------------------|

then:
 |----------17p14--16p14------19p14------17p14--16p14-----------|
 |--14--14----------------14---------14---------------15--14----|
 |--------------------------------------------------------------|
 |--------------------------------------------------------------|
 |--------------------------------------------------------------|
 |--------------------------------------------------------------|

 |----------17p14--16p14------19p14------17p14--16p14-----------|
 |--14--14----------------14---------14---------------15--14----|
 |--------------------------------------------------------------|
 |--------------------------------------------------------------|
 |--------------------------------------------------------------|
 |--------------------------------------------------------------|

while other guitar plays:
 |-------------------------------|
 |-------------------------------|
 |--13---6---11---6---9-9-9-9----|
 |--x----x---x----x---x-x-x-x----|
 |--11---4---9----4---7-7-7-7----|
 |-------------------------------|

 |--------------------------|
 |-------------5----5--5----|
 |--6-----2----6----6--6----|
 |--6--2--2----6----6--6----|
 |--4--2--0----4----x--0----|
 |-----0------------6-------|

then verse again:
Guitar 1:
 |-----------------------------------------------------------|
 |-----------------------------------------------------------|
 |-----------------------------------------------------------|
 |--4-4-4-4-4-4-4-4----8-8-8-8-8-8-8-8----4-4-4-4-4-4-4-4----|
 |--4-4-4-4-4-4-4-4----8-8-8-8-8-8-8-8----4-4-4-4-4-4-4-4----|
 |--2-2-2-2-2-2-2-2----6-6-6-6-6-6-6-6----2-2-2-2-2-2-2-2----|

Guitar 2:
 |------------------------------------------------------------------|
 |--11---------------11--10-----------------------------------------|
 |-----10------10-----------10----------------------10--8h10--8~----|
 |--------12~-----12-----------12--10--10h12~----8------------------|
 |------------------------------------------------------------------|
 |------------------------------------------------------------------|

 |------------------------------------------------------------------|
 |--11---------------11--10-----------------------------------------|
 |-----10------10-----------10----------------------10--8h10--8~----|
 |--------12~-----12-----------12--10--10h12~----8------------------|
 |------------------------------------------------------------------|
 |------------------------------------------------------------------|

then this solo part:
 |-------------------------------------------------------------------------|
 |--4/6-------------------4/6------------------4/6-------------------------|
 |------5p0-------------------5p0------------------5p0---------------------|
 |----------5p0------5------------5p0-----5------------5p0------5--8--10---|
 |--------------5p0--5----------------5p0-5----------------5p0--5--8--10---|
 |-------------------3--------------------0---------------------0--6--8----|

|--------------------------------------------------------------------------|
|--11-11---------11--10-10---------10--10--10----------10--8-8--------8----|
|------10-----10-----------10---10-----10-----10----10---------9----9------|
|----------8------------------8--------10--------10--------------10--------|
|--------------------------------------8-----------------------------------|
|--------------------------------------------------------------------------|

 |---------17----15----13----12----13------13b^15r13--|
 |----------------------------------------------------|
 |--/14-14----14----14----14----14----14--------------|
 |----------------------------------------------------|
 |----------------------------------------------------|
 |----------------------------------------------------|

then:
 |----------17p14--16p14------19p14------17p14--16p14-----------|
 |--14--14----------------14---------14---------------15--14----|
 |--------------------------------------------------------------|
 |--------------------------------------------------------------|
 |--------------------------------------------------------------|
 |--------------------------------------------------------------|

that's all...





Tap to rate this tab
 
# A B C D E F G H I J K L M N O P Q R S T U V W X Y Z