Song name
# A B C D E F G H I J K L M N O P Q R S T U V W X Y Z

Misc Unsigned Bands - Underaged Limit - Incomplete tab

Help us improve GuitareTab! Take a short survey!
Song Incomplete, Lead guitar

Drum intro at the beginning


-------------------------------|
-------------------------------|
-----------------7-7-4-44------|
--------44444444-7-7-4-44------|    x 8
--------44444444-5-5-2-22------|
--------22222222---------------|


--------------------------------------------|
--------------------------------------------|
----------------7-7-7-7-4-4-4-4-4-4-4-4-----|
--------4-4-4-4-7-7-7-7-4-4-4-4-4-4-4-4-----|    x 4
--------4-4-4-4-5-5-5-5-2-2-2-2-2-2-2-2-----|
--------2-2-2-2-----------------------------|


---------------------------------------|
---------------------------------------|
---------------------------------------|
--------4------------------------4-----|    x 4 (every other guitar)
--------4------------------------4-----|
--------22222222222222222222222222-----|


--------------------------------------------|
--------------------------------------------|
----------------7-7-7-7-4-4-4-4-4-4-4-4-----|
--------4-4-4-4-7-7-7-7-4-4-4-4-4-4-4-4-----|    x 8 (Hold the last note)
--------4-4-4-4-5-5-5-5-2-2-2-2-2-2-2-2-----|
--------2-2-2-2-----------------------------|
Related for Underaged Limit - Incomplete tab