Guitaretab - guitar tabs
Song name
# A B C D E F G H I J K L M N O P Q R S T U V W X Y Z

Misc Unsigned Bands - The Last Theory - Song With No Name tab

Intro
|-------------------------------------------0---------------0-------------|
|----------0-------------------3------------1---------------3-------------|
|--------0---0---0-------0-------0--------0---0---0-------0---0---5-------|
|------4-------4-------4-----4----------2-------2-------4-------4---------|x4
|--------------------------5--------3-----------------5-------------------|
|--0-----------------0----------------------------------------------------|
[ Tab from: http://www.guitaretab.com/m/misc-unsigned-bands/101888.html ]
|-------------------------------------------0---------------0-------------|
|----------0-------------------3------------1---------------3-------------|
|--------0---0---0-------0-------0--------0---0---0-------0---0---5-------|
|------4-------4-------4-----4----------2-------2-------4-------4---------|
|--------------------------5--------3-----------------5-------------------|
|--0-----------------0----------------------------------------------------|
|                                                                         |
|-------------------------------------------------------------------------|
|-------------------------------------------------------------------------|
|-------------------------------------------------------------------------|
|--2~------------------------------10~--------------12~-------------------|
|--2~------------------------------10~--------------12~-------------------|
|--0~-------------------------------8~--------------10~-------------------|

Verse
|-------------------------------------------------------------------------|
|-------------------------------------------------------------------------|
|-------------------------------------------------------------------------|
|------4-5--55-5-7----7-7-77-7---------4-5--55--9--7----7-7--7------------|
|-2-22-2-3--33-3-5-55-5-4-44-5----2-22-2-3--33--7--5-55-5-4--5------------|
|-0-00----------------------------0-00------------------------------------|
    pm      pm     pm     pm        pm      pm       pm

Chorus
|-------------------------------------------------------------------------|
|-------------------------------------------------------------------------|
|--2~----------4~----2~-----------------4~--------------------------------|
|--2~----2~----4~----2~--2-2-2-2-2-2-2--4~--4-4-4-4-4-4-4-----------------|
|--0~----2~----2~----0~--0-0-0-0-0-0-0--2~--2-2-2-2-2-2-2-----------------|
|--------0~---------------------------------------------------------------|
Related for The Last Theory - Song With No Name tab
Advertisement will be closed in 10 seconds