Song name
# A B C D E F G H I J K L M N O P Q R S T U V W X Y Z

Misc Unsigned Bands - Judahs Cry - Broken tab

This is my band so the tab has to be 100% correct since i was the one who wrote the song. enjoy.

Intro/Verse         Clean
Guitar 1
e----------0---------------------------------------------------|
B------4-----4---4-------------4-------------------4-----------|
G----4---4-----4---x2------4-----4---4-x2------4-----4---4--x2-|
D--2---------------------2---2-----2---------2---2-----2-------|
A----------------------0-------------------4-------------------|
E--------------------------------------------------------------|

Guitar2
e---------------------------------------------------------------------------|
B---------------------------------------------------------------------------|
G---------------------------------------------------------------------------|
D--2---x2-------------------------------------------------------------------|
A----------------------0--x2---------------4--x2----------------------------|
E---------------------------------------------------------------------------|

Guitar 1
e-----------------------------|
B----------4------------------|            Play this 3 times
G------4-----4---4--x2--------|
D----2---2-----2--------------|
A--2--------------------------|
E-----------------------------|

Guitar 2
e-----------|
B-----------|
G-----------|
D-----------|
A---2-x2----|
E-----------|

Prechorus               Play this twice
Guitar 1
e-------------------------------------------------------------------------|
B------------4----------------4----------------4----------------4---------|
G-------4------4---4------4-----4---4------4-----4---4------4-----4---4---|
D-----2---2------2------2---2-----2------2---2-----2------2---2-----2-----|
A---------------------0----------------2----------------2-----------------|
E---4---------------------------------------------------------------------|

Guitar 2
e---------------------------------------------------------------------------|
B---------------------------------------------------------------------------|
G---------------------------------------------------------------------------|
D-----6----------------7---------------9----------------9-------------------|
A-----6----------------7---------------9----------------9-------------------|
E-----4----------------5---------------7----------------7-------------------|

Chorus
Guitar 1
e--0-------0------0------0-------|
B--5-------5------5------5-------|
G--4-x14---4-x14--4-x14--4-------|    Play this twice
D--2-------2------2------2-x14---|
A----------2------4------0-------|
E--------------------------------|

Guitar 2
e--------------------------------|
B--------------------------------|
G--9-----------------------------|
D--9-x14--9------11------7-------|
A--7------9-x14--11-x14--7-x14---|
E---------7------9-------5-------|

Verse 2  same just distorted
Chorus 2
e--------------------------------|
B--------------------------------|
G--9-----------------------------|   Both Guitars play this distorted
D--9-x14--9------11------7-------|
A--7------9-x14--11-x14--7-x14---|
E---------7------9-------5-------|


Bridge
Guitar 1
e----------------------------------------------------------------------------|
B----------------------------------------------------------------------------|
G-\9-9-9-\111111\131313\141414-----\9-9-9-\111111\131313\141414\161616161616-|
D-\x-x-x-\x-x-x-\x-x-x-\x-x-x---x2-\x-x-x-\x-x-x-\x-x-x-\x-x-x-\x-x-x-x-x-x--|
A-\7-7-7-\9-9-9-\111111\121212-----\7-7-7-\9-9-9-\111111\121212\141414141414-|
E----------------------------------------------------------------------------|

e------------------|
B------------------|            Guitar 1 plays this bridge section twice
G-1616161616161616-
D-x-x-x-x-x-x-x-x--
A-1414141414141414-
E------------------

Guitar 2
e--------------------------------|
B--------------------------------|
G--9-----------------------------|  Play this twice
D--9-x14--9------11------7-------|
A--7------9-x14--11-x14--7-x14---|
E---------7------9-------5-------|

Then it goes back to the chorus twice

Solo
Guitar 1
e----------------------------------------------------------------------|
B----------------------------------------------------------------------|
G-------------------------------------------------8-9-11--------8-9-11-|
D----------------------------7-9-11--------7-9-11--------7-9-11--------|
A--------7-9-11-------7-9-11--------7-9-11-----------------------------|
E--5-7-9--------5-7-9--------------------------------------------------|

e------------------------9-11-12---------9-11-12/-14-1214121612141216-x12--|
B-9-10-12--------9-10-12---------9-10-12-----------------------------------|
G---------8-9-11-----------------------------------------------------------|
D--------------------------------------------------------------------------|
A--------------------------------------------------------------------------|
E--------------------------------------------------------------------------|


Guitar 2
e--------------------------------|
B--------------------------------|
G--9-----------------------------|  Play this twice
D--9-x14--9------11------7-------|
A--7------9-x14--11-x14--7-x14---|
E---------7------9-------5-------|
Tap to rate this tab
# A B C D E F G H I J K L M N O P Q R S T U V W X Y Z