Song name
# A B C D E F G H I J K L M N O P Q R S T U V W X Y Z

Misc Unsigned Bands - Down By Nine - Cut The Hostility tab

e--------------------------------------|
B---------------11---------------------|
G-----7------------11--------11-----9--|
D-------7------------------------------|
A---5--------9---------9b-9------7-----|
E--------------------------------------|

            ^intro
e---------------------------------------|
B------------11-----------11-11-11--9---|
G----7----------11---9----11-11-11--9---|
D------7-------------9----11-11-11--9---|
A--5-------9---------7----9--9--9---7---|
E--------------------0------------------|

verses
----------------------------------------------|
--7-7-------11-11-----14-14---11--9-----------|
--7-7-------11-11-----14-14---11--9-----------|
--7-7-------11-11-----14-14---11--9----   x 2-|
--5-5--//---9--9--//--12-12---9---7-----------|
----------------------------------0-----------|
then intro  1 time

...until the chorus
---------5-5-5---------2-2-2--4--------|
--7-7-7--5-5-5--9-9-9--2-2-2--4--------|
--7-7-7--6-6-6--9-9-9--3-3-3--5--------|
--7-7-7--7-7-7--9-9-9--4-4-4--6--------|  x 3
--5-5-5--7-7-7--7-7-7--4-4-4--6--------|
---------5-5-5--0-0-0--2-2-2--4--------|

this all is repeated for 2nd verse and 2nd chorus
fucking sick songh.....you can find it on ARES
download it for free...please
Tap to rate this tab
# A B C D E F G H I J K L M N O P Q R S T U V W X Y Z