Song name
# A B C D E F G H I J K L M N O P Q R S T U V W X Y Z

Misc Unsigned Bands - Of Fate And Chance - Photo Not Graphing Emotions tab

Artist - Of Fate And Chance
Album - A Liar's Monologue EP
Song - Photo Not Graphing Emotions

My 2nd OFaC tab, I'm 100% sure this is all right. This may not be exactly the OFaC way, 
it's definitely all the right notes.

Intro/Main Riff
e|--------------------------------------------------------------|
B|--------------------------------------------------------------|
G|--------------------------------------------------------------|Gtr. 1
D|-9==================================--------------------------|
A|-9==================================--------------------------|
E|-7==================================--------------------------|
 |
e|--------------------------------------------------------------|
B|---7-----7---------------------------7---8-7-------5h7p5------|
G|-----9-----9---7-----6-7-9-7-6---7-----7----------------7-6---|Gtr. 2
D|-9-----9-----9-----7-----------7--------------/5------------7-|
A|--------------------------------------------------------------|
E|--------------------------------------------------------------|


e|----------------------------------------------------------------|
B|o--------------------------------------------------------------o|
G|----------------------------------------------------------------|Gtr. 1
D|--9-----------7----------------------12---------5---------------|
A|o-9-----------7----------------------12---------5--------------o|
E|--7-----------5----------------------10---------3---------------|
 |
e|----------------------------------------------------------------|
B|o---7-----7---------------------------7---8-7-------5h7p5------o|
G|------9-----9---7-----6-7-9-7-6---7-----7----------------7-6----|Gtr. 2
D|--9-----9-----9-----7-----------7---------------5------------7--|
A|o--------------------------------------------------------------o|
E|----------------------------------------------------------------|

Verse 1
e|---------------------------------------------------------------|
B|o-------------------------------------------------------------o|
G|---------------------------------------------------------------|
D|--9-9-9---9-9-9----------------12-12-12---12-12-12---4-4--5-5--|
A|o-9-9-9---9-9-9---4-4--4-4-----12-12-12---12-12-12---4-4--5-5-o|
E|--7-7-7---7-7-7---5-5--5-5-----10-10-10---10-10-10---2-2--3-3--|
PM  . . .   . . .                 .  .  .    .  .  .

e|--------------------------------------------------------------------|
B|o------------------------------------------------------------------o|
G|--------------------------------------------------------------------|
D|--99999---999999---------------1212121212---121212121212--4-4--5-5--|
A|o-99999---999999--4-4--4-4-----1212121212---121212121212--4-4--5-5-o|
E|--77777---777777--5-5--5-5-----1010101010---101010101010--2-2--3-3--|
PM  .....   ......                . . . . .    . . . . . .


Chorus (both guitars)
e|---------------------------------------------------------------------|
B|o-------------------------------------------------------------------o|
G|----------------------------------------------------------0-------0--|
D|------------------------------------------4-------4-----0-------0----|
A|o-9-9-9-9----9-9-9-7-7-7-7----9-9-9-----4-------4-----2-------2-----o|
E|--7-7-7-7---101010-5-5-5-5---101010-2-2-----2-2-----3-------3--------|

e|----------------------------------------------------------------------------|
B|o--------------------------------------------------------------------------o|
G|-----------------------------------------------------------------0-------0--|
D|-----------4h5p4---------------4h5p4-------------4-------4-----0-------0----|
A|o-9-9-9-9--------7-5--7-7-7-7--------7-5-------4-------4-----2-------2-----o|
E|--7-7-7-7-------------5-5-5-5--------------2-2-----2-2-----3-------3--------|


Repeat main riff


Verse 2 - same as verse 1


Chorus repeat


Bridge
e|-------------------------------------------------------|
B|o-----------------------------------------------------o|
G|-------------------------------------------------------|Both Gtrs
D|--5-5---5-5-5---5-5-5---5-5-5-----4--------------------|Play 4x
A|o-5-5---5-5-5---5-5-5---5-5-5-------7-5-7-----7-5-4-5-o|
E|--3-3---3-3-3---3-3-3---3-3-3---7-----------5----------|

e|-----------------------------|
B|-----------------------------|
G|-----------------------------|
D|-5-5---5-5-5---5-5-5---5-5-5-|
A|-5-5---5-5-5---5-5-5---5-5-5-|
E|-3-3---3-3-3---3-3-3---3-3-3-|


Repeat whole intro


Chorus repeat


Outro (repeat until end)
e|--------------------------------------------------|
B|--------------------------------------------------|
G|--------------------------------------------------|
D|---4----------------------------------------------|
A|-----7-5-7-----7-5-4-5---5=======================-|
E|-7-----------5-----------3=======================-|
Tap to rate this tab
# A B C D E F G H I J K L M N O P Q R S T U V W X Y Z