Song name
# A B C D E F G H I J K L M N O P Q R S T U V W X Y Z

Misc Unsigned Bands - Jemoiii - 2008 tab

Help us improve GuitareTab! Take a short survey!
Intro/Main riff
pt 1
e|---------------------------------------|
B|---------------------------------------|
G|---------------------------------------|
D|-5--5--5----5--5--5----5--5--5-5-5-5-5-|
A|-5--5--5----5--5--5----5--5--5-5-5-5-5-|
E|-3--3--3----3--3--3----3--3--3-3-3-3-3-|

p2
e|---------------------------------------|
B|---------------------------------------|
G|---------------------------------------|
D|-3--3--3----3--3--3----3--3--3-3-3-3-3-|
A|-3--3--3----3--3--3----3--3--3-3-3-3-3-|
E|-1--1--1----1--1--1----1--1--1-1-1-1-1-|

Verse 1
It's weird because it starts of on p2 of the main riff, so that counts as 1 time, then 
the riff another 2 times.
Main riffx3
then
e|---|
B|---|
G|---|
D|-2-|
A|-2-|
E|-0-|

Main Riffx3

then

e|-----------------|
B|-----------------|
G|---------------2-|
D|-2-------------2-|
A|-2-------------0-|
E|-0---------------|
      Not really        But it is

Bridge
e|-----------------------------------------------------|
B|-----------------------------------------------------|
G|-----------------------------------------------------|
D|-5-5-5------5-5-5------5-5-5-5-5-5-5-5-5-5-5-5-5-5-5-|
A|-5-5-5------5-5-5------5-5-5-5-5-5-5-5-5-5-5-5-5-5-5-|
E|-3-3-3------3-3-3------3-3-3-3-3-3-3-3-3-3-3-3-3-3-3-|

Then play the main riff about 2/3 times, but slightly slower, and after that do this:

Main riffx2

Outro
e|-------------------------------|
B|-------------------------------|
G|-------------------------------|
D|-5-5-5-5-5-5-5-5-5-5-5-5-5-5-5-|
A|-5-5-5-5-5-5-5-5-5-5-5-5-5-5-5-|
E|-3-3-3-3-3-3-3-3-3-3-3-3-3-3-3-|

e|-----------------------|
B|-----------------------|
G|-----------------------|
D|-5-----5-----5-----5-5-|
A|-5-----5-----5-----5-5-|
E|-3-----3-----3-----3-3-|

LA FIN
Related for Jemoiii - 2008 tab