Song name
# A B C D E F G H I J K L M N O P Q R S T U V W X Y Z

Misc Unsigned Bands - Reign Of Chaos - Pushed To The Edge tab

Amazing band check them out i think this is right 
www.myspace.com/reignofchaoshull
*correct version other one was wrong*

d|--------------------------------------------|
A|--------------------------------------------|
F|--------------------------------------------|
C|-0-000-0-000-0-000-0-000-0-3-5-3-6-5-3-5----| x4 
G|-0-000-0-000-0-000-0-000-0-3-5-3-6-5-3-5----|
C|-0-000-0-000-0-000-0-000-0-3-5-3-6-5-3-5----|
     ...   ...   ... 

d|-----------------11----------------------------------|
A|-------10------15--15------10------------------------|
F|-----13--13--------------13--13-------------------10-|
C|-000-------000-------000----------------10---10-12---| x2 
G|-000-------000-------000-------10-11-12----12--------|
C|-000-------000-------000-----------------------------|

d|--------------------------------------------|
A|--------------------------------------------|
F|--------------------------------------------|
C|-0-000-0-000-0-000-0-000-0-3-5-3-6-5-3-5----| x4
G|-0-000-0-000-0-000-0-000-0-3-5-3-6-5-3-5----|
C|-0-000-0-000-0-000-0-000-0-3-5-3-6-5-3-5----|
     ...   ...   ... 


d|-------------------|
A|-------------------|
F|-5s777-10s999s10---|
C|-x-xxx-x--xxx-x----|  
G|-3s555-8-s777s8----|
C|-------------------|

d|---------------|
A|-----6---------|
F|-10--5--10-s-12|
C|-8---7--8--s-10|  
G|-8---5--8--s-10|
C|-8---5--8--s-10|
 (strum)

d|-------------------|
A|-------------------|
F|-5s777-10s999s10---|
C|-x-xxx-x--xxx-x----|  
G|-3s555-8-s777s8----|
C|-------------------|

d|---------------------|
A|-----6---------------|
F|-10--5---------------|
C|-8---7--1------------|  
G|-8---5--1----------5*|
C|-8---5--1--0-2-3-0---|
 (strum)

d|-------------------------------------| |
A|-------------------------------------| |
F|-------------------------------------| |
C|-0-0-6-0-0-5-0-0-3-0-0-6-0-0-5-------| | 
G|-0-0-6-0-0-5-0-0-3-0-0-6-0-0-5-------| |
C|-0-0-6-0-0-5-0-0-3-0-0-6-0-0-5-------| |
                                         | x 4
d|-------------------------------------| |
A|-------------------------------------| |
F|-------------------------------------| |
C|-0-0-6-0-0-5-0-0-3-0-0-6-0-0-1-------| | 
G|-0-0-6-0-0-5-0-0-3-0-0-6-0-0-1-------| |
C|-0-0-6-0-0-5-0-0-3-0-0-6-0-0-1-------| |

d|-------------------|
A|-------------------|
F|-5s777-10s999s10---|
C|-x-xxx-x--xxx-x----|  
G|-3s555-8-s777s8----|
C|-------------------|

d|---------------|
A|-----6---------|
F|-10--5--10-s-12|
C|-8---7--8--s-10|  
G|-8---5--8--s-10|
C|-8---5--8--s-10|
 (strum)

d|-------------------|
A|-------------------|
F|-5s777-10s999s10---|
C|-x-xxx-x--xxx-x----|  
G|-3s555-8-s777s8----|
C|-------------------|

d|---------------------|
A|-----6---------------|
F|-10--5---------------|
C|-8---7--1------------|  
G|-8---5--1----------5*|
C|-8---5--1--0-2-3-0---|
 (strum)

d|--------------------------------------------|
A|--------------------------------------------|
F|--------------------------------------------|
C|-0-000-0-000-0-000-0-000-0-3-5-3-6-5-3-5----| x2 
G|-0-000-0-000-0-000-0-000-0-3-5-3-6-5-3-5----|
C|-0-000-0-000-0-000-0-000-0-3-5-3-6-5-3-5----|
     ...   ...   ... 

d|-------------------------------------| |
A|-------------------------------------| |
F|-------------------------------------| |
C|-0-0-6-0-0-5-0-0-3-0-0-6-0-0-5-------| | 
G|-0-0-6-0-0-5-0-0-3-0-0-6-0-0-5-------| |
C|-0-0-6-0-0-5-0-0-3-0-0-6-0-0-5-------| |
                                         | x 2 
d|-------------------------------------| |
A|-------------------------------------| |
F|-------------------------------------| |
C|-0-0-6-0-0-5-0-0-3-0-0-6-0-0-1-------| | 
G|-0-0-6-0-0-5-0-0-3-0-0-6-0-0-1-------| |
C|-0-0-6-0-0-5-0-0-3-0-0-6-0-0-1-------| |

d|--------------------------------------------|
A|--------------------------------------------|
F|--------------------------------------------|
C|-0-000-0-000-0-000-0-000-0-3-5-3-6-5-3-5----| x2 
G|-0-000-0-000-0-000-0-000-0-3-5-3-6-5-3-5----|
C|-0-000-0-000-0-000-0-000-0-3-5-3-6-5-3-5----|
     ...   ...   ... 

d|-----------------11--|
A|-------10------15--15|
F|-----13--13----------|
C|-000-------000-------| 
G|-000-------000-------|
C|-000-------000-------|

Please rate and tab out xavier or forever from the myspace please someone?
This band is catchy I might tab out more
Tap to rate this tab
 
# A B C D E F G H I J K L M N O P Q R S T U V W X Y Z