Song name
# A B C D E F G H I J K L M N O P Q R S T U V W X Y Z

Misc Unsigned Bands - Alien - Walking Down tab

Help us improve GuitareTab! Take a short survey!
e[15--14--12------14--12----------12-------------------------------------|
B[------------15----------15--14------15--14--12--15--14--12--15--14--12-|
G[-----------------------------------------------------------------------|
D[-----------------------------------------------------------------------|
A[-----------------------------------------------------------------------|
E[-----------------------------------------------------------------------|

e[-----------------------------------------------------------------------]
B[----14--12----------12------------------------------------------------0]
G[14----------14--12------14--12--11--14--12--11------11~~---------------]
D[------------------------------------------------14---------------------]
A[----------------------------------------------------------------------0]
E[-----------------------------------------------------------------------]
Related for Alien - Walking Down tab