Guitaretab - guitar tabs
Song name
# A B C D E F G H I J K L M N O P Q R S T U V W X Y Z

Misc Unsigned Bands - Crusin Usa - Roadkill Jam tab

Tabbed by: Zach “Dense-Electric” Cox
Email: dense_electric@yahoo.com

Ah, memories.  This was my favorite track from one of the greatest racing games of all 
Crusin’ USA.

Tuning: Standard

e|-/12~~~\10/12---10--------------------------------/12~~~\10/12~\10/12---10-|
B|-------------------12-10-12-10---------------------------------------------|
G|-------------------------------/12~~~-9------------------------------------|
D|----------------------------------------/12~~~\----------------------------|
A|---------------------------------------------------------------------------|
E|---------------------------------------------------------------------------|
[ Tab from: http://www.guitaretab.com/m/misc-unsigned-bands/102002.html ]
e|-----------------------------/10-9------/10-9----/12~-10-9----9-10-9---/10-|
B|-12-10-12--------------------------10-8-------10-----------10--------------|
G|----------/12~~~-9---------------------------------------------------------|
D|-------------------/12~~~\-------------------------------------------------|
A|---------------------------------------------------------------------------|
E|---------------------------------------------------------------------------|

e|-9------/10-9----------------------------------------------------------------|
B|---10-8-------10-back to beginning-------------------------------------------|
G|-----------------------------------------------------------------------------|
D|-----------------------------------------------------------------------------|
A|-----------------------------------------------------------------------------|
E|-----------------------------------------------------------------------------|

The track simply repeats until you finish the level, change the song, or until time runs out.

| /  slide up
| \  slide down
| h  hammer-on
| p  pull-off
| ~  vibrato
| +  harmonic
| x  Mute note
===============================================================================
Related for Crusin Usa - Roadkill Jam tab
Advertisement will be closed in 10 seconds