Song name
# A B C D E F G H I J K L M N O P Q R S T U V W X Y Z

Misc Unsigned Bands - Brian Koenig - Peaceful Serenity tab

capo can be put just about anywhere, if desired. sounds great..
standard tuning

Part I
E---------------------------------------------------------}
B---------0h1---1h3---3p1-----------0h1---1h3---3p1-------}
G-------2-----2-----2-----2-------0-----0-----0----0------}Keep a fast tempo
D-----2------------------------2--------------------------}throughout the
A---0------------------------3----------------------------}song.
E---------------------------------------------------------}
   Am                        C
E---------------------------------------------------------}
B---------0h1---1h3---3p1---------------------------------}
G-------0-----0-----0-----0---------0--0-------0--0--0----}Repeat
D-----0---------------------------3----------5------------}   many many
A-------------------------------3----------5--------------}     times.
E---3-------------------------1----------3----------------}
    G                         F          G
____________________________________________________________________

Part II
E-------------0----------<12>-----------------------------}
B---------0h1--------------<12>---------------------------}
G-------2--------------------<7>--------------------------}Last time through
D-----2------------------------<7>------------------------}play this with an
A---0---------------------------------<7)-----------------}upstroke on
E---------------------------------------------------------}the high E.

Hope you enjoy. Takes time to master, but sounds great in the end.
Play Part I many times, I play it about 10 times then hit up the Part II to wrap things 
You could even play the chords (Am C G F G.. adding the 3rd fret on the B string 
Sounds beautiul).
Get to playing, Enjoy.
Tap to rate this tab
 
# A B C D E F G H I J K L M N O P Q R S T U V W X Y Z