Song name
# A B C D E F G H I J K L M N O P Q R S T U V W X Y Z

Misc Unsigned Bands - Nocturnal Silence - Lost And Unable tab

Artist - Nocturnal Silence
Song - Lost and Unable
Album - Nocturnal Silence





      PM PM    PM    PM PM PM                                       
                                              |---3---|             
      E  E  E  E  E  E  E  E      E   E   E   E   E   E   E   Q     
D||---------------------------|--------------13--17--13------------|
A||---------------------------|----------15--------------15--------|
F||*--------------------------|------14----------------------14----|
C||*--------------------------|--15--------------------------------|
G||---------5-----8-----------|------------------------------------|
C||---0--0-----0-----0--0--0--|------------------------------------|
 
 
  PM PM    PM    PM PM PM                                            
                              |--3--|   |--3--|   |---3--|  |-3|     
  E  E  E  E  E  E  E  E      E  E  E   E  E  E   E  E   E  E  Q     
--------------------------|-----------------------------------------|
--------------------------|-----------------------------------------|
--------------------------|-----------------------------------------|
--------------------------|--------------------------7--------------|
--------8-----7-----------|--10--8--7------7--8--10-----10--8--7----|
--0--0-----0-----0--0--0--|------------10---------------------------|
 
 
  PM PM    PM    PM PM PM                                       
                                          |---3---|             
  E  E  E  E  E  E  E  E      E   E   E   E   E   E   E   Q     
--------------------------|--------------13--17--13------------|
--------------------------|----------15--------------15--------|
--------------------------|------14----------------------14----|
--------------------------|--15--------------------------------|
--------5-----8-----------|------------------------------------|
--0--0-----0-----0--0--0--|------------------------------------|
 
 
  PM PM    PM    PM PM PM                                    
  E  E  E  E  E  E  E  E     E   E   E   E   E   E  Q     3x 
--------------------------|--------------------------------||
--------------------------|-------------10-----------------||
--------------------------|-----------------12--10--9----*-||
--------------------------|-----12--10-------------------*-||
--------8-----7-----------|--8-----------------------------||
--0--0-----0-----0--0--0--|--------------------------------||
 
 
   PM PM PM    PM PM    PM    PM     PM PM    PM PM PM  
   E  E  E  E  E  E  E  E     E   E  E  E  E  E  E  E   
---------------------------|---------------------------|
---------------------------|---------------------------|
*--------------------------|---------------------------|
*--------------------------|---------------------------|
------------5--------7-----|-----10--------8-----------|
---0--0--0-----8--8-----8--|--8------8--8-----8--8--8--|
 
 
                                                    PM PM PM    PM PM    PM  
   |---3---|   |---3---|   |---3---|   |---3--|                              
   E   E   E   E   E   E   E   E   E   E   E  E     E  E  E  E  E  E  E  E   
-------------------------------------------------|--------------------------|
-------------------------------------------------|--------------------------|
-------------------------------------------------|--------------------------|
-------------------------------------------------|--------------------------|
--15--13--12--13--12--10--13--12--10--12--10--8--|-----------5--------7-----|
-------------------------------------------------|--0--0--0-----8--8-----8--|
 
 
  PM     PM PM    PM PM PM                                          
                              |---3--|  |---3--|  |--3--|           
  E   E  E  E  E  E  E  E     E  E   E  E   E  E  E  E  E  Q     3x 
---------------------------|--------------------------------------||
---------------------------|--------------------------------------||
---------------------------|------------------------------------*-||
---------------------------|------------7-----------------------*-||
-----10--------8-----------|--7--8--10-----10--8--7--8--7--5------||
--8------8--8-----8--8--8--|--------------------------------------||
 
 
        PM             PM         PM              PM  
   Q    E   Q    Q     E     Q    E    Q    Q     E   
--------------------------|--------------------------|
--------------------------|--------------------------|
*-------------------------|--------------------------|
*-------------------------|--8-----------------------|
---0-------\8----7~-------|--8-------\10----8~-------|
---0----0--------------8--|--8----8---------------5--|
 
 
       PM        PH                  PM      PM       
  Q    E  Q      Q.       3x    Q    E  Q    E  Q     
---------------------------||------------------------|
---------------------------||------------------------|
-------------------------*-||*-----------------------|
--5----------------------*-||*-----------------------|
--5-------5----<>7~--------||---8-------8-------8----|
--5----5-------------------||---8----8--8----8--8----|
 
 
                     PM PM PM              PM      PM       
  |---3--|  |--3--|                                         
  E   E  E  E  E  E  S  S  E  Q       Q    E  Q    E  Q     
-----------------------------------|-----------------------|
-----------------------------------|-----------------------|
-----------------------------------|-----------------------|
--7--------------------------------|-----------------------|
-----10--8--7--8--7-----------5----|--5-------5-------5----|
---------------------0--0--0-------|--5----5--5----5--5----|
 
 
  |--3--|  |--3--|  |---3--|  |---3---|                           
  E  E  E  E  E  E  E  E   E  E   E   E   3x    W                 
-------------------------------------------||--------------------|
-------------------------------------------||--------------------|
-----------------------------------------*-||*-------------------|
-----------7------------------7h--8p--7--*-||*--0----------------|
--5--7--8-----8--7--7--8--10---------------||---0----------------|
-------------------------------------------||---0----------------|
 
 
  W                   W                     Q    E  Q    E  Q     
-------------------|-------------------|-------------------------|
-------------------|-------------------|-------------------------|
-------------------|-------------------|-------------------------|
--L----------------|--8----------------|-------------------------|
--L----------------|--8----------------|--\10----8--7----8--7----|
--L----------------|--8----------------|-------------------------|
 
 
                                         PM PM PM PM PM PM PM PM PM PM PM PM  
  H.            3x   W                   S  S  E  S  S  E  S  S  E  S  S  E   
-----------------||-------------------|--------------------------------------|
-----------------||-------------------|--------------------------------------|
---------------*-||-------------------|--------------------------------------|
---------------*-||--0----------------|--------------------------------------|
--5--------------||--0----------------|--0--0--0--0--0--0--0--0--0--0--0--0--|
-----------------||--0----------------|--0--0--0--0--0--0--0--0--0--0--0--0--|
 
 
  PM PM PM PM PM PM   PH           PM PM PM PM PM PM PM PM PM PM PM PM  
  S  S  E  S  S  E    H            S  S  E  S  S  E  S  S  E  S  S  E   
--------------------------------|--------------------------------------|
--------------------------------|--------------------------------------|
--------------------------------|--------------------------------------|
--------------------------------|--------------------------------------|
--0--0--0--0--0--0--<>8b--------|--0--0--0--0--0--0--0--0--0--0--0--0--|
--0--0--0--0--0--0--------------|--0--0--0--0--0--0--0--0--0--0--0--0--|
 
 
  TP                  TP         PH         
  W                   H          H          
-------------------|-----------------------|
-------------------|-----------------------|
-------------------|-----------------------|
-------------------|-----------------------|
-------------------|-----------------------|
--8----------------|--3--------<>4b--------|
 
 
    PM PM PM PM PM PM PM PM PM PM PM PM    PM PM PM PM PM PM   PH         
    S  S  E  S  S  E  S  S  E  S  S  E     S  S  E  S  S  E    H          
|---------------------------------------|--------------------------------|
|---------------------------------------|--------------------------------|
|*--------------------------------------|--------------------------------|
|*--------------------------------------|--------------------------------|
|---0--0--0--0--0--0--0--0--0--0--0--0--|--0--0--0--0--0--0--<>8b--------|
|---0--0--0--0--0--0--0--0--0--0--0--0--|--0--0--0--0--0--0--------------|
 
 
  PM PM PM PM PM PM PM PM PM PM PM PM    TP                
  S  S  E  S  S  E  S  S  E  S  S  E     W                 
--------------------------------------|-------------------|
--------------------------------------|-------------------|
--------------------------------------|-------------------|
--------------------------------------|-------------------|
--0--0--0--0--0--0--0--0--0--0--0--0--|-------------------|
--0--0--0--0--0--0--0--0--0--0--0--0--|--8----------------|
 
 
  TP         PH                                 
  H          H          3x    W                 
-------------------------||--------------------|
-------------------------||--------------------|
-----------------------*-||*-------------------|
-----------------------*-||*--0----------------|
-------------------------||---0----------------|
--3--------<>4b----------||---0----------------|
 
 
               |---3---|                                 
   E   E   E   E   E   E   E   Q       W                 
--------------13--17--13------------|-------------------|
----------15--------------15--------|-------------------|
------14----------------------14----|-------------------|
--15--------------------------------|--8----------------|
------------------------------------|--8----------------|
------------------------------------|--8----------------|
 
 
                                                     PM    PM    PM     
   |--3--|   |--3--|   |---3--|  |-3|                                   
   E  E  E   E  E  E   E  E   E  E  Q     4x    Q    E  E  E  E  E  E   
-------------------------------------------||--------------------------|
-------------------------------------------||--------------------------|
-----------------------------------------*-||*-------------------------|
--------------------------7--------------*-||*--0----------------------|
--10--8--7------7--8--10-----10--8--7------||---0-------5-----7-----8--|
------------10-----------------------------||---0----0-----0-----0-----|
 
 
  PM   PM     PM    PM             PM    PM    PM      
  Q    E   E  E  E  E  E      Q    E  E  E  E  E   E   
--------------------------|---------------------------|
--------------------------|---------------------------|
--------------------------|---------------------------|
--8-----------------------|--10-------7---------------|
--8-------10-----8-----7--|--10-------------8-----10--|
--8----8------8-----8-----|--10----0-----0-----0------|
 
 
  PM    PM    PM                       PM PM PM PM PM PM PM PM PM  
  E  E  E  E  E  E   E  E   3x    Q    S  S  E  S  S  E  S  S  E   
-----------------------------||-----------------------------------|
-----------------------------||-----------------------------------|
---------------------------*-||*----------------------------------|
---------------------------*-||*--0-------------------------------|
-----8-----7-----7h--8--5----||---0----0--0--0--0--0--0--0--0--0--|
--0-----0-----0--------------||---0----0--0--0--0--0--0--0--0--0--|
 
 
       PM PM PM PM PM PM PM PM PM    PM PM PM       PM PM PM          
  Q    S  S  E  S  S  E  S  S  E     S  S  E  Q     S  S  E  Q     3x 
----------------------------------|---------------------------------||
----------------------------------|---------------------------------||
----------------------------------|-------------------------------*-||
--8-------------------------------|-------------------------------*-||
--8----8--8--8--8--8--8--8--8--8--|--8--8--8--7----10-10-10--8------||
--8----8--8--8--8--8--8--8--8--8--|---------------------------------||
 
 
  PM    PM    PM                                                     
  E  E  E  E  E  E   E  E     W                   W                  
---------------------------|-------------------|-------------------||
---------------------------|-------------------|-------------------||
---------------------------|-------------------|-------------------||
---------------------------|--0----------------|--L----------------||
-----8-----7-----7h--8--5--|--0----------------|--L----------------||
--0-----0-----0------------|--0----------------|--L----------------||
 
 
 
 
Duration Legend
---------------
W - whole
H - half
Q - quarter
E - 8th
S - 16th
T - 32nd
X - 64th
. - note dotted
|-n-|  - n-tuplets
 
 
Tablature Legend
----------------
L - tied note
x - dead note
g - grace note
(n) - ghost note
> - accentuded note
NH - natural harmonic
AH - artificial harmonic
TH - tapped harmonic
SH - semi harmonic
PH - pitch harmonic
h - hammer on
p - pull off
b - bend
br - bendRelease
pb - preBend
pbr - preBendRelease
brb - bendReleaseBend
\n/ - tremolo bar dip
\n - tremolo bar dive
-/n - tremolo bar Release up
/n\ - tremolo bar inverted dip
/n - tremolo bar return
-\n - tremolo bar Release down
S - shift slide
s - legato slide
/ -  slide into from below or out of upwards
\ -  slide into from above or out of downwards
~ - vibrato
W - wide vibrato
tr - tril'
TP - tremolo picking
T - tapping
S - slap
P - pop
< - fade in
^ - brush up
v - brush down
Tap to rate this tab
# A B C D E F G H I J K L M N O P Q R S T U V W X Y Z