Song name
# A B C D E F G H I J K L M N O P Q R S T U V W X Y Z

Misc Unsigned Bands - Undersin Clair - The Bottomless Pit Called Her Purse tab

The Bottomless Pit Called Her Purse

Intro
e|-----------------------------------------------------------5-3--0/2/0---------|
B|----5/4/5-8-5/4/5----5---5---5---3---3------5/4/5-8-5/4/5---------------------|
G|--5---------------5----5---5---4---4---4--5-----------------------------------|
D|------------------------------------------------------------------------------|
A|------------------------------------------------------------------------------|
E|------------------------------------------------------------------------------|

e|--0-1-3-10-7-------------------------------------------------|
B|----------------5/4/5-8-8-5/4/5---5---5---5---3---3---3------|
G|--------------5-----------------5---5---5---4---4---4--------|
D|-------------------------------------------------------------|
A|-------------------------------------------------------------|
E|-------------------------------------------------------------|

e|------------------------------------------------------------------------------|
B|---5/4/5-8-8-5/4/5---5---5---5---3---3---3-------5----------------------------|
G|-5-----------------5---5---5---5---4---4---4----------------------------------|
D|------------------------------------------------------------------------------|
A|------------------------------------------------------------------------------|
E|------------------------------------------------------------------------------|
Tap to rate this tab
# A B C D E F G H I J K L M N O P Q R S T U V W X Y Z