Song name
# A B C D E F G H I J K L M N O P Q R S T U V W X Y Z

Misc Unsigned Bands - Kjfan1- Mix From Myspace tab

e|-------------------------------------------|
b|-------------------------------------------|
g|-------------------------------------------|
d|-------------------------------------------|
a|-0-2-3---0-2-------0-0-2-3-2-0-2-----------|
e|-------------3-0-------------------3-0-----|

e|-------------------------------------------|
b|-------------------------------------------|
g|-------------------------------------------|
d|-------------------------------------------|
a|-0-0-2-3---5-2---------0-0-2-3-2-0-2-------|
e|-----------------3-0-------------------3-0-|
this is a song i mixed and put on my myspace
william feltner it comes in after all of the guns and stuff
i really play it on the a&e bass string and it sounds cooler
i hope you like it it's my first tab!
Tap to rate this tab
# A B C D E F G H I J K L M N O P Q R S T U V W X Y Z