Song name
# A B C D E F G H I J K L M N O P Q R S T U V W X Y Z

Misc Unsigned Bands - A Man With Robot Hands - I Cant Name You tab

Help us improve GuitareTab! Take a short survey!
  Hey guys it's jake This is a very good song, 
  not too many people have heard of it. 
  Its Andrew de Torres from The Scene Aesthetic 
  playing by hisself, he is very good. 
  Anyway, i tabbed this out i think its pretty 
  accurate if i find out something's wrong about 
  it i will make a new one or fix it.
  Thanks, enjoy!!!

  Standard Tuning






   Intro

E|------------------------------------------------| 
B|--0-----0----1-----1----0-----0----3-----3------| 
G|----0-----0----0-----0----0-----0----0-----0----|   (x4)
D|------2----------2----------2----------2--------|
A|-------------3----------------------------------|
E|--0---------------------3----------3------------|


E|---------------| 
B|--5--3--1--0---| 
G|---------------|   (on 4th time)
D|---------------|
A|--7--5--3------|
E|-----------3---|




   Verse

E|------------------------------------------------| 
B|--0-----0----1-----1----0-----0----3-----3------| 
G|----0-----0----0-----0----0-----0----0-----0----|   (x8)
D|------2----------2----------2----------2--------|
A|-------------3----------------------------------|
E|--0---------------------3----------3------------|


E|---------------| 
B|--5--3--1--0---| 
G|---------------|   (on 8th time)
D|---------------|
A|--7--5--3------|
E|-----------3---|








 Chorus   

E|--3--3--3--2--3-----3---| 
B|--3--3--3--3--3--1--3---| 
G|--0--0--0--2--0--0--0---|  (x2)
D|--2--2--0--0--2--2--0---|
A|--3--2--2--0--2--3--2---|
E|--------3-----------3---|





    Bridge/Long Chorus


E|------------------------------------------------| 
B|--0-----0----1-----1----0-----0----3-----3------| 
G|----0-----0----0-----0----0-----0----0-----0----|   (x2)
D|------2----------2----------2----------2--------|
A|-------------3----------------------------------|
E|--0---------------------3----------3------------|


E|---------------| 
B|--5--3--1--0---| 
G|---------------|   (on 2nd time)
D|---------------|
A|--7--5--3------|
E|-----------3---|




E|--3--3--3--3--3--3--3-3--3-| 
B|--3--3--3--3--3--3--3-3--3-| 
G|--0--0--0--0--0--0--0-0--0-|  (x2)
D|--2--0--2--0--2--0--2-2--0-|
A|--3--2--3--2--0--2--2-3--2-|
E|-----3-----3-----3-------3-|



E|--3--3--3---------------| 
B|--3--3--3---------------| 
G|--0--0--0---------------|  (x3)
D|--2--2--2---------------|
A|--0--2--3---------------|
E|------------------------|


E|-------3-----3-----3----| 
B|------3-----3-----3-----| 
G|-----0-----0-----0------|  
D|----2-----2-----2-------|
A|---0-----2-----3--------|
E|------------------------|




 Chorus   

E|--3--3--3--2--3-----3---| 
B|--3--3--3--3--3--1--3---| 
G|--0--0--0--2--0--0--0---|  (x4)
D|--2--2--0--0--2--2--0---|
A|--3--2--2--0--2--3--2---|
E|--------3-----------3---|





  Outro


E|------------------------------------------------| 
B|--0-----0----1-----1----0-----0----3-----3------| 
G|----0-----0----0-----0----0-----0----0-----0----|   (x2)
D|------2----------2----------2----------2--------|
A|-------------3----------------------------------|
E|--0---------------------3----------3------------|


E|---------------| 
B|--5--3--1--0---| 
G|---------------|   (on 2nd time)
D|---------------|
A|--7--5--3------|
E|-----------3---|





 Tabbed out by Jake Tomlinson/ myspace.com/my_space_biotch1
Related for A Man With Robot Hands - I Cant Name You tab