Song name
# A B C D E F G H I J K L M N O P Q R S T U V W X Y Z

Misc Unsigned Bands - Orchestra Baobab - Bul Ma Miin tab

Orchestra Baobab - Signed To World Circuit Records http://www.worldcircuit.co.uk/#Orchestra_Baobab

Orchestra Baobab are great, and their guitar playing is spectacular. Fiddle around with 
EQ until you get that clean African sound. Listen to the track to get the rhythms right 
in the solo)!

RHYTHM GUITAR:

Main chord sequence: Dm Am E Am all the way through, with a bar (measure) per chord.

Dm: x57765
Am: 577555
E:  x79997

The strumming is very rhythmic, off the beat, like a sped up reggae rhythm.

There is also a little bridge, where you just slam on the Dm Chord twice. Have a listen.


LEAD GUITAR:

Intro:

  Dm                Am                E                 Am

E|-----------------|-----------------|-----------------|-----------------|
B|---6-6-6-8-8-6---|---5-5-5-6-6-5---|---3-3-3-5-5-3---|-1---------------|
G|---7-7-7-9-9-7---|---5-5-5-7-7-5---|---4-4-4-5-5-4---|-2---------------|
D|-----------------|-----------------|-----------------|-----------------|
A|-----------------|-----------------|-----------------|-----------------|
E|-----------------|-----------------|-----------------|-----------------|

play this twice.


Riff, during singing:

  Dm                Am                E                 Am

E|-10------12--13--|-8-------8---8---|-7-------7---10--|-8-------8---8---|
B|-----10----------|-----10----------|-----9-----------|-----10----------|
G|-------10--------|-------9---------|-------9---------|-------9---------|
D|-----------------|-----------------|-----------------|-----------------|
A|-----------------|-----------------|-----------------|-----------------|
E|-----------------|-----------------|-----------------|-----------------|

Solo:


E|--------------------|-----------------|---------------------|
B|---8-10---------8---|---8-------------|---------------------|
G|------------------10|-9---9-----------|---------------------|
D|--------------------|-------10--------|---9-9-------10-9-7-7|
A|--------------------|-----------------|---------------------|
E|--------------------|-----------------|---------------------|


|-----------------|--------------------|-----8---------8-|-7-------------7-|
|-----------------|------------------8-|---8---8---------|---9-------9-10--|
|-9--------------7|-9-10-------7-9-10--|-9---------------|-----------------|
|---7-7----7-9-10-|--------------------|-----------------|-----------------|
|-----------------|--------------------|-----------------|-----------------|
|-----------------|--------------------|-----------------|-----------------|


|-8-5-------------|-----------------|-----------------|-----1-----------|
|-----5---------8-|-6---8-6---8-6-5-|-4-5---1---1---1-|---3---3---------|
|-------5---------|-----------------|---------2-------|-4-------4-1-----|
|-----------------|-----------------|-----------------|-------------2-6-|
|-----------------|-----------------|-----------------|-----------------|
|-----------------|-----------------|-----------------|-----------------|

|---------5-------|-------------------------|-------------------------|
|-----5-----5-----|-------------------------|-------------------------|
|---5---5-----5---|-------------------2-2-2-|-------------------2-2-2-|
|-7-------------7-|-------------3-3-3-------|-------------2-2-2-------|
|-----------------|-5-5-5-5-5-5-------------|-3-3-3-3-3-3-------------|
|-----------------|-------------------------|-------------------------|

|-------------------------|-----------------|-------------------------|
|-------------------------|-----------------|-------------------------|
|-------------------------|-----------------|-------------------2-2-2-|
|-------------0-0-0-2-2-2-|-----------------|-------------3-3-3-------|
|-2-2-2-2-2-2-------------|-0---------------|-5-5-5-5-5-5-------------|
|-------------------------|-----------------|-------------------------|

|------------------------|------------------------|-----------------------|
|------------------------|------------------------|----------10-11-10-8-10|
|------------------2-2-2-|------------------------|-----------------------|
|------------2-2-2-------|------------0-0-0-2-2-2-|-----------------------|
|-3-3-3-3-3-3------------|-2-2-2-2-2-2------------|-0-0-------------------|
|------------------------|------------------------|-----------------------|

|---------------------------|------10----------|-----------------------------|
|---10------10-9-10-12-10-12|-13-12--13------13|-12-13-12-10-12-9---12-10-12-|
|-10--7---------------------|------------------|-----------------------------|
|---------------------------|------------------|-----------------------------|
|---------------------------|------------------|-----------------------------|
|---------------------------|------------------|-----------------------------|

|---10--12-----0-5-0|-7-0-8-0-10---0-7-0-8-0-10-0|-12-------0-12-0-13-0-15|
|-13--13------------|----------------------------|------------------------|
|-------------------|----------------------------|------------------------|
|-------------------|----------------------------|------------------------|
|-------------------|----------------------------|------------------------|
|-------------------|----------------------------|------------------------|


|-13-12-13-12-10-12-10-8-8-7-5-7|-5-8-5-----------|-----------------|
|-------------------------------|-------5-8-----8-|-6---8-6---8-6-5-|
|-------------------------------|-----------------|-----------------|
|-------------------------------|-----------------|-----------------|
|-------------------------------|-----------------|-----------------|
|-------------------------------|-----------------|-----------------|

|-----------------|-----1-----------|------/17----17-17-17-17-17-17|
|-4-5---1---1---1-|---3---3---------|------------------------------|
|---------2-------|-4-------4-1-----|---5--------------------------|
|-----------------|-------------2-6-|-7---7------------------------|
|-----------------|-----------------|------------------------------|
|-----------------|-----------------|------------------------------|

|-17-------17-17-17-16|-17-----------20-20-20|-19-19-19-22---------19-19-19--|
|---18----------------|---17------17---------|------------21-21-21-----------|
|---------------------|----------------------|-------------------------------|
|---------------------|----------------------|-------------------------------|
|---------------------|----------------------|-------------------------------|
|---------------------|----------------------|-------------------------------|

|------20----15--13|-15--13-15--13-15-13|-12-11-12\-------|---------1-0----|
|-22-22--17--------|--------------------|-----------------|-------3------0-|
|------------------|--------------------|-----------------|---1-4-------1--|
|------------------|--------------------|--------------/2-|----------------|
|------------------|--------------------|-----------------|----------------|
|------------------|--------------------|-----------------|----------------|

|---------5-------|-------------------------|-------------------------|
|-----5-----5-----|-------------------------|-------------------------|
|---5---5-----5---|-------------------2-2-2-|-------------------2-2-2-|
|-7-------------7-|-------------3-3-3-------|-------------2-2-2-------|
|-----------------|-5-5-5-5-5-5-------------|-3-3-3-3-3-3-------------|
|-----------------|-------------------------|-------------------------|

|-------------------------|-----------------|-------------------------|
|-------------------------|-----------------|-------------------------|
|-------------------------|-----------------|-------------------2-2-2-|
|-------------0-0-0-2-2-2-|-----------------|-------------3-3-3-------|
|-2-2-2-2-2-2-------------|-0-0-------------|-5-5-5-5-5-5-------------|
|-------------------------|-----------------|-------------------------|

|-------------------------|-------------------------|-----------------|
|-------------------------|-------------------------|-----------------|
|-------------------2-2-2-|-------------------------|-----------------|
|-------------2-2-2-------|-------------0-0-0-2-2-2-|-----------------|
|-3-3-3-3-3-3-------------|-2-2-2-2-2-2-------------|-0-0-------------|
|-------------------------|-------------------------|-----------------|


Play intro 2x again, then back into the riff for the rest of the song.

Final chord: Am6 (577575)

Enjoy!
Peace, Lukewa
Tap to rate this tab
# A B C D E F G H I J K L M N O P Q R S T U V W X Y Z